Zacznij systematycznie uczyć się grać na gitarze razem ze stroną Moja nauka - będziesz miał/miała do niej dostęp po zalogowaniu się w serwisie

Taką wodą być (solo) - Happysad

Opracował -a: lukcio1996,
Dodał -a: lukcio1996,
Redaktor: SEBEK1304,
Pochodzi z: http://www.chords.pl
Data publikacji: 2011-01-09 11:51
 
Moja nauka


Ups, problem :-/
Zaloguj się Mój śpiewnik


Witam to moje pierwsze opracowanie .
 Mam nadzieje że komuś się przyda . 
Rozpisywałem ze słuchu więc mogą być błędy .
 Pisane w notatniku . Życzę miłej gry ;) ...


|----------------------------------------------------------5--10--12--13--15--12--13-18--22--20--22-
|-------------8--------8--5-----5-6-3-----11--11--5--6--8-------------------------------------------
|-7--9--7--9----------------------------------------------------------------------------------------
|---------------9/\-7--------------------------------------------------------------------------------
|---------------------------------------------------------------------------------------------------
|---------------------------------------------------------------------------------------------------

--17/\/\------------------|
----------17--18---17--15-|
--------------------------|
--------------------------|
--------------------------|
--------------------------|

Dodaj komentarz ...i/lub link do filmiku video

Zaloguj się do serwisu
Ostatnie komentarze
1.
żuk
2013-08-20 22:19
Dzięki Ci przyda się.
2.
jo3
2012-02-12 15:38
To se skowerowałem na klasyka...
Wszelkie materiały i wypowiedzi zamieszczone na www.chords.pl są własnością ich autorów.