Zacznij systematycznie uczyć się grać na gitarze razem ze stroną Moja nauka - będziesz miał/miała do niej dostęp po zalogowaniu się w serwisie

Taka historia (trąbka) - Happysad

Opracował -a: Tomassen,
Dodał -a: Tomassen,
Redaktor: SEBEK1304,
Pochodzi z: http://www.chords.pl
Data publikacji: 2011-03-21 11:38
 
Moja nauka


Ups, problem :-/
Zaloguj się Mój śpiewnik


Solo trąbki i końcówka
tonacja d-moll


E-|-5------------------------------------6--5h6p5p3h5--|-----------------------------------|
H-|-------6-5------6-6-6p5-6p5---6---------------------|-6-5-3h5p3---6-6-6p5-6p5---6-------|
G-|-----------7-------------------2h3p2----------------|----------------------------2h3p2--|
D-|----------------------------------------------------|-----------------------------------|
A-|----------------------------------------------------|-----------------------------------|
E-|----------------------------------------------------|-----------------------------------|

E-|------------------------------------|-----5-------------------------------------12----13-10--|
H-|---5-6-5---6--------5-6-5---5h6p5---|---6---6-5-6/10----10h11p10-11----10h11p10--------------|
G-|-7-------7--------7-------7---------|-7------------------------------------------------------|
D-|------------------------------------|--------------------------------------------------------|
A-|------------------------------------|--------------------------------------------------------|
E-|------------------------------------|--------------------------------------------------------|

                D5                              raz dwa trzy cztery!
E-|-----------|--------------------------------|
H-|-----10----|--------------------------------|
G-|-7-9----10-|-7-7-----7-7-----7-7-----7------|
D-|-----------|-7-7-----7-7-----7-7-----7------|
A-|-----------|-5-5-----5-5-----5-5-----5------|
E-|-----------|--------------------------------|
                ("i mówię ci...")                ("kupa czasu")

  G5 g   A5 a   D5   E5   F5       G5
|----3------5-------------------------------|\
|----3------5-------------------------------| \
|----3------5---7777-9999-10101010-12121212-|  \ x2
|-5--5---7--7---7777-9999-10101010-12121212-|  /
|-5--5---7--7---5557-7777-8-8-8-8--10101010-| /
|-3--3---5--5-------------------------------|/





    G5              A5              D5      E5      F5      G5
E-|---------------------------------------------------------------------|
H-|---------------------------------------------------------------------|
G-|---------------------------------7-7-7-7-9-9-9-9-1010101012-12-12-12-|
D-|-5-5-5-5-5-5-5-5-7-7-7-7-7-7-7-7-7-7-7-7-9-9-9-9-1010101012-12-12-12-|  x2
A-|-5-5-5-5-5-5-5-5-7-7-7-7-7-7-7-7-5-5-5-5-7-7-7-7-8-8-8-8-10-10-10-10-|
E-|-3-3-3-3-3-3-3-3-5-5-5-5-5-5-5-5-------------------------------------|

  D5
|----------------------------|
|----------------------------|
|-77--777--777--7----------7-|
|-77--777--777--7-----7----7-|
|-55--555--555--5-5-7---8--5-|
|----------------------------|

Dodaj komentarz ...i/lub link do filmiku video

Zaloguj się do serwisu
Wszelkie materiały i wypowiedzi zamieszczone na www.chords.pl są własnością ich autorów.