Zacznij systematycznie uczyć się grać na gitarze razem ze stroną Moja nauka - będziesz miał/miała do niej dostęp po zalogowaniu się w serwisie

Jeszcze, jeszcze - Happysad

Opracował -a: denu,
Pochodzi z: http://www.chords.pl
Data publikacji: 2006-03-14 13:04
 
Moja nauka


Ups, problem :-/
Zaloguj się Mój śpiewnik


[zwrotka]:

  D     f#           h
  Dzień, który...
    e       A        D
  I marnie...
        f#           h
          Może strułem...
    e       A
    Nie wyspałem...

  itd.
E||-2-2-2-2-2--2-2-3--2-2-2-2-2--2-2-5-5-5-5-3-2--2-2-2-3-0-||
B||---------------------------------------------------------||
G||---------------------------------------------------------||
D||---------------------------------------------------------||
A||---------------------------------------------------------||
E||---------------------------------------------------------||


[refren]:

         D           A
  I może sama...
                     D
  Jak mam...
         A           D
  Że już....
         A           D
  Że kiedy....
  A                  f#
  Już nie...
  h                  f#
       Już nie...
  h
       Już nie...
  G                 h     e   A
  Jeszcze, jeszcze..


E||----------------5---------5-7-5--------------------------||
B||--------7-7-7-8---7-7-7-8-------8-7-7-7-7-7~8~5----------||
G||---------------------------------------------------------||
D||---------------------------------------------------------||
A||---------------------------------------------------------||
E||---------------------------------------------------------||


E||--------12-12-12-12-12-11-10-10-10-10-10-9-9-9-9-9-------||
B||---------------------------------------------------------||
G||---------------------------------------------------------||
D||---------------------------------------------------------||
A||---------------------------------------------------------||
E||---------------------------------------------------------||

E||---7-7-7-7-7--5-5-5-5-5--------------------------5-------||
B||--------------------------8-7-5------7-7-7-7-7-8---------||
G||---------------------------------------------------------||
D||---------------------------------------------------------||
A||---------------------------------------------------------||
E||---------------------------------------------------------||

E||---------5-7-5---------7-5-------------------------------||
B||-7-7-7-8---------8-7--------8-7--------------------------||
G||--------------------------------7------------------------||
D||---------------------------------------------------------||
A||---------------------------------------------------------||
E||---------------------------------------------------------||
Autor opracowania Jamniok , kamil-ch1

Dodaj komentarz ...i/lub link do filmiku video

Zaloguj się do serwisu
Ostatnie komentarze
1.
rhiatta
2008-07-21 21:30
nie wiem jako solo bo jeszcze nie sprawdzalam ale musze przynac ze chwyty pasuja idealnie:)
2.
kaczka6661
2008-03-30 08:38
f# to jest fis mol oczywiscie
3.
Helykuptr
2008-03-29 22:19
może głupio, że nie wiem, ale co to jest "f#" ?
4.
makaron5
2008-03-09 19:35
wydaje mi sie ze te solo koncowe jest troche źle napisane.
Wszelkie materiały i wypowiedzi zamieszczone na www.chords.pl są własnością ich autorów.