Zacznij systematycznie uczyć się grać na gitarze razem ze stroną Moja nauka - będziesz miał/miała do niej dostęp po zalogowaniu się w serwisie

Długa droga w dół - Happysad

Opracował -a: lordaxis,
Redaktor: Tomek Pietrzkowski,
Pochodzi z: http://chords.pl
Data publikacji: 2007-10-10 00:00
 
Moja nauka


Ups, problem :-/
Zaloguj się Mój śpiewnik


[tab]
intro i powt. się motyw w zwrotce:

----------------3------5---6-------------
-3-5-6-5-3-5-6----6-5--5-5---5-6-8-6-5---
-----------------------------------------
-----------------------------------------
-----------------------------------------
-----------------------------------------

"tak często Cię widzę..."

  d   g   a   d   a

--5---3---5---5---5---------------------------
--6---3---5---6---5---------------------------
--7---3---5---7---5---------------------------
--7---5---7---7---7---------------------------
--5---5---7---5---7---------------------------
--5---3---5---5---5---------------------------



"bo Ty tak pięknie pachniesz..."

   d   a

---5---5-------------
---6---5-------------
---7---5-------------
---7---7-------------
---5---7-------------
---5---5-------------


"o udupienie totalne..."

   d  a  d     d  a  d   a  d  a  d

---5--5--5-----5--5--5---0--5--5--5---
---6--5--6-----6--5--6---1--6--5--6---
---7--5--7-----7--5--7---2--7--5--7---
---7--7--7-----7--7--7---2--7--7--7---
---5--7--5-----5--7--5---0--5--7--5---
---5--5--5-----5--5--5---0--5--5--5---

intro końcowe :

-10-12-13-12-10-12-13-15-13-12-17-12-8---
-----------------------------------------
-----------------------------------------
-----------------------------------------
-----------------------------------------
-----------------------------------------


-17-12-13-15-13-12-----10-12-13-12-10-12-
-----------------------------------------
-----------------------------------------
-----------------------------------------
-----------------------------------------
-----------------------------------------



13-15-13-12--17-17--17-17--18-18--18-18--17~
--------------------------------------------
--------------------------------------------
--------------------------------------------
--------------------------------------------
--------------------------------------------

[/tab]

Można grac chyty normalnie,ale na barowych lepiej brzmi raczej.

Miłego grania ; )

Dodaj komentarz ...i/lub link do filmiku video

Zaloguj się do serwisu
Ostatnie komentarze
1.
him666
2014-08-16 01:26
,,Intro końcowe" :)? po naszymu to outro Fajne opracowanie
2.
jagodowa93
2014-02-24 18:37
bo ty tak pięknie pachniesz d kiedy przechodzisz pod oknem d śmiejesz się w głos d nie obchodzi cię to C a czy ustoję czy upadnę d ................................ o udupienie totalne dd niewiasty nosisz imię d a ile cię trzeba dotknąć razy? C a żeby się człowiek poparzył d ale tak żeby więcej ani razu d d żeby już więcej za nic d a żeby już więcej nie miał odwagi C a no ile razy, razu razy raz. ?! d
3.
Speed2005
2008-03-24 13:41
Takie solo rozgryzłem na końcu:P
4.
Speed2005
2008-03-24 13:40
----10---12-13----12-10-----12-13-15----13-12-----17--17------13-13--15-13---12-13-12----- ----------------------------------------------------------17--17----- ----------------------------------------------------------17----- ----10---12-13----12-10-----12-13-15----13-12-----17-17-17-17-17---18-18-18-18-18----17----- ----------------------------------------------------------------- ---------------------------------------------------------------
5.
Zapis
2007-12-31 17:12
jednak 8:D:D struna rozstrojona xD
6.
Zapis
2007-12-31 17:08
-------------------------------5----5-------------------- -----5-6---5---5-6--9---6-5--5----5----6--9-6-5--------- ---7---------7-------------------5----------------------- ---------------------------------------------------------- ------------------------------------------------------ ------------------------------------------------------ to na 100% jest poprawnie xD
7.
izaak
2007-12-29 17:56
Zapis, a nie powinno być 8 zamiast 9?
8.
Zapis
2007-12-29 00:57
-------------------------------5----5-------------------- -----5-6---5---5-6--9---6-5--5----5----5--6--9-6-5--------- ---7---------7-------------------5----------------------- ---------------------------------------------------------- ------------------------------------------------------ ------------------------------------------------------ tam na dole pomylka nie ma dziekow niektorych xD to jest poprawione
9.
Zapis
2007-12-29 00:55
----------------------------5----5-------------------- -----5-6---5---5-6--9---6-5--5----5--6--9-6-5--------- ---7---------7----------------5----------------------- ------------------------------------------------------ ------------------------------------------------------ ------------------------------------------------------ ta tabulatura mi lepiej wyglada bo łatwiej zagrac xD
10.
asiulka13
2007-11-20 22:34
Wszystko gra jest super :):)
Wszelkie materiały i wypowiedzi zamieszczone na www.chords.pl są własnością ich autorów.