Zacznij systematycznie uczyć się grać na gitarze razem ze stroną Moja nauka - będziesz miał/miała do niej dostęp po zalogowaniu się w serwisie

Ojczyzna (Bass) - Happysad

Opracował -a: tayson1227,
Dodał -a: tayson1227,
Redaktor: SEBEK1304,
Data publikacji: 2011-01-30 12:13
 
Moja nauka


Ups, problem :-/
Zaloguj się Mój śpiewnik


Intro:1

G-----------------
D----22-----------
A-22---00---------
E--------22--02---

Reszta grana jest :2

G--------------------------
D------4-2-0---5555--40----
A-22-2-------4-------------
E--------------------------

Przejscie:3

G--------
D--------
A-2~--0~-i 2
E--------

I potem jest taki moment same basidlo:4

G-2222-4-2----
D---------4-2-
A-------------
E-------------

No i koniec grany:5

G-----------------
D----222----------
A-222---000-------
E----------222----
Poprawki mile widziane:P

Dodaj komentarz ...i/lub link do filmiku video

Zaloguj się do serwisu
Wszelkie materiały i wypowiedzi zamieszczone na www.chords.pl są własnością ich autorów.