Zacznij systematycznie uczyć się grać na gitarze razem ze stroną Moja nauka - będziesz miał/miała do niej dostęp po zalogowaniu się w serwisie

Dziadek (Tak bezpiecznie) - Happysad

Opracował -a: Kosiarz87,
Redaktor: Tomek Pietrzkowski,
Pochodzi z: http://www.chords.pl
Data publikacji: 2009-01-16 10:24
 
Moja nauka


Ups, problem :-/
Zaloguj się Mój śpiewnik


Bądź "W piwnicy u dziadka"
(W opracowaniu Jarentego, które dostępne jest również na tej stronie występują
niedociągnięcia, jednak było ono pomocne przy tworzeniu mojego opracowania)


Wstęp:
C a  x2

Zwrotka:
C a  (powtarzane kilka razy - bicie najlepiej wyczaić z piosenki)

W pewnym momencie przechodzimy:
d G

Później krótki riff, który wygląda mniej więcej tak:
E|--------------3/5\3----------------------|
H|---1--1----1-----------1--1----1----0----|
G|----------------------------------0------|
D|-----------------------------------------|
A|-----------------------------------------|
E|-----------------------------------------|

Bądź - jeśli wygodniej tak:
E|-----------------------------------------|
H|--------------8/10\8---------------------|
G|---5--5----5-----------5--5----5--0---4--|
D|-----------------------------------------|
A|-----------------------------------------|
E|-----------------------------------------|

Będąc dokładniejszym, przechodzimy bijąc pojedynczo:

d G C

i zaraz wejść delikatnie zmienionym riffem:

E|-----------3/5\3---------------------|
H|--1----1-----------1--1----1----0----|
G|------------------------------0------|
D|-------------------------------------|
A|-------------------------------------|
E|-------------------------------------|



Pozdrawiam :)
Dodał: Bartek Pawłowski, 2015-02-17 16:56
Opracowania video z komentarzy

Dodaj komentarz ...i/lub link do filmiku video

Zaloguj się do serwisu
Wszelkie materiały i wypowiedzi zamieszczone na www.chords.pl są własnością ich autorów.