Zacznij systematycznie uczyć się grać na gitarze razem ze stroną Moja nauka - będziesz miał/miała do niej dostęp po zalogowaniu się w serwisie

Mów mi dobrze(tab) - Happysad

Opracował -a: smolarek30,
Dodał -a: smolarek30,
Redaktor: Roob,
Data publikacji: 2009-10-14 22:46
 
Moja nauka


Ups, problem :-/
Zaloguj się Mój śpiewnik



Happysad- mów mi dobrze

PRZEJŚCIA:

E------------------------------|-----------------------------|
H------------------------------|-----------------------------|
G--5-5--4-4--2-2---------------|-5-5--4-4---2-2--------------|
D--------------------2---2-2---|--------------------2--3-3---|
A------------------------------|-----------------------------|
E------------------------------|-----------------------------|

|----------------------------|------------------------|
|----------------------------|---------------5-5------|
|-7-7---5-5---4---4-5-4------|----7-7---5-5-------7---|
|----------------------------|------------------------|
|----------------------------|------------------------|
|----------------------------|------------------------|

SOLO:
E-------------------------------|-------------------------|
H-------------------------------|-------------------------|
G-------------------------------|-------------------------|
D--7---9/10--9-7-10---7-7-------|--9/10--9-7-10--7-7------|
A-------------------------------|-------------------------|
E-------------------------------|-------------------------|

|-----------------------------|-----------------------------------------|
|-----------------------------|-----------------------------------------|
|--------------------9-9--7---|--7-7-7---9-9-7--9b10--9b10---9----------|
|--7-9-9-10-10----------------|-----------------------------------------|
|-----------------------------|-----------------------------------------|
|-----------------------------|-----------------------------------------|

|-----------------------------------|-----------------------------------|
|-----------------------------------|-----------------------------------|
|-------------12--10---9h10p9-------|-------------12--10---9h10p9-------|
|--7--9--7--------------------------|--7--9--7--------------------------|
|-----------------------------------|-----------------------------------|
|-----------------------------------|-----------------------------------|

|----------------------------------------|------------------------------------------|
|----------------13--11--10h11p10--------|-----------------13--11--10h11p10---------|
|----------------------------------------|------------------------------------------|
|-10-12-10-------------------------------|--10--12--10------------------------------|
|----------------------------------------|------------------------------------------|
|----------------------------------------|------------------------------------------|

Dodaj komentarz ...i/lub link do filmiku video

Zaloguj się do serwisu
Ostatnie komentarze
1.
smolarek30
2010-12-29 21:00
1.22 min
2.
michael0505
2010-10-23 22:30
od której minuty to solo się zaczyna?
Wszelkie materiały i wypowiedzi zamieszczone na www.chords.pl są własnością ich autorów.