Zacznij systematycznie uczyć się grać na gitarze razem ze stroną Moja nauka - będziesz miał/miała do niej dostęp po zalogowaniu się w serwisie

Jeśli nie rozjadą nas czołgi (tab) - Happysad

Opracował -a: fabian93,
Dodał -a: fabian93,
Redaktor: SEBEK1304,
Pochodzi z: http://www.chords.pl
Data publikacji: 2011-11-23 20:17
 
Moja nauka


Ups, problem :-/
Zaloguj się Mój śpiewnik


Intro

e -----------------------------------------------------------------------------------------
B -8-8-8-8-8-8-8-8-8-8-10-10-7-7-7-7-7-7-5-5-5-5-5-------------8-8-8-8-8-7-7-7-7-7-7-------
G -------------------------------------------------5-5-5-5-5-5-----------------------------
D -----------------------------------------------------------------------------------------
A -----------------------------------------------------------------------------------------
E -----------------------------------------------------------------------------------------

Part A

e----------------------------------------------------------------------------------------------
B----------------------------------------------------------------------------------------------
G----------------------------------------------------------------------------------------------
D-7/9-9-9-7-7-7-10-----------------12-12-12-12-10-7/9-9-9-9-9-7-7-7-7-7-10-----------12--12----
A------------------7-8-8-8-8-8-8-8-----------------------------------------7-8-8-8-8----10--10-
E----------------------------------------------------------------------------------------------

Part B
e -------------------------------------------------
B -12-10-12-10-12-10-10-13-13-13-13-12-12-12-10-12~
G -------------------------------------------------
D -------------------------------------------------
A -------------------------------------------------
E -------------------------------------------------
Po kolei leci tak:

0:00 Intro x2
0:18 Part A x2
1:18 Part A x2
2:17 Part B
2:22 Part A x2
2:31 Part B x2
3:22 Intro x2

Pozdrawiam, Fabian.

Dodaj komentarz ...i/lub link do filmiku video

Zaloguj się do serwisu
Wszelkie materiały i wypowiedzi zamieszczone na www.chords.pl są własnością ich autorów.