Zacznij systematycznie uczyć się grać na gitarze razem ze stroną Moja nauka - będziesz miał/miała do niej dostęp po zalogowaniu się w serwisie

Milowy Las - Happysad

Opracował -a: migfulcrum,
Redaktor: Tomek Pietrzkowski,
Pochodzi z: http://www.chords.pl
Data publikacji: 2008-05-23 17:47
 
Moja nauka


Ups, problem :-/
Zaloguj się Mój śpiewnik


Wstęp i zwrotka(do "ostatnie zdanie"):
najlepiej uderzać kostką z góry wtedy brzmi jak na nagraniu


  x12    x3   x12    x3

E||-1----3----(0)----(0)------
B||-3----3-----1------0-------
G||-2----2-----2------2-------
D||-0----0-----2------2-------
A||---------------------------
E||---------------------------



E||--0-0-1-1-3-3-1-0-----------
B||----------------------------



"Ze ja na imie mam..."

   x8   x8    x11
E||------3----(0)----
B||-1----3-----1-----
G||-0----0-----2-----
D||-2----0-----2-----
A||-3----2-----------
E||------3-----------

refren:
mozna grac calymi akordami ale chyba lepiej brzmi tak:


"Nieokielznany milowy las..."

         d               G             a            a

E||------1---------------3-------------0------------0-------
B||----3---3-----------3---3---------1---1--------1---1-----
G||----------2-------0-------0-------------2------------2---
D||--0---------0---------------0-------------2------------2-
A||---------------2----------------0------------0-----------
E||---------------------------------------------------------



solo po refrenie

E||-------------------------------------
B||---6-5---------5-----------6-5-------
G||-------7-4-5-7---7-5---4-5-----7-4---
D||---------------------7-------------7-
A||-------------------------------------
E||-------------------------------------


solo glowne
    <              x2                >
E||-------------------------------------5-5----------------------
B||--6-6-6-5-5-5---6-6-6-5-5-5-5------------8-6-5-6-5------------
G||------------------------------5--------------------7-5--5-7-5-
D||--------------------------------------------------------------
A||--------------------------------------------------------------
E||--------------------------------------------------------------


E||--5-5-------------5-8----
B||------8-6-5-8-5-8-----5--
G||-------------------------
D||-------------------------
A||-------------------------
E||-------------------------


E||-----------15-18-------------------------------15-18-----------
B||--16-16-15--------15-13-15--15-16-15--16-16-15-------15-13-15--
G||---------------------------------------------------------------
D||---------------------------------------------------------------
A||---------------------------------------------------------------
E||---------------------------------------------------------------



        x2

E||--1-1-1-0-0-0---(0)-------------------------------------------
B||--3-3-3-3-3-3----1-------------------------------------------------
G||--2-2-2-2-2-2----2------------------------------------------
D||-----------------2----------------------------------------
A||-----------------------------------------------------
E||-----------------------------------------------------


ostatni refren:

normalnie d/G/a (bicie w pisosence)

koncowe solo:


E||---------------------------------------
B||---6-5---------5-----------6-5---------
G||-------7-5-4-5---7-5-4-5-7-----7-4-----
D||-----------------------------------7---
A||---------------------------------------
E||---------------------------------------

Dodaj komentarz ...i/lub link do filmiku video

Zaloguj się do serwisu
Ostatnie komentarze
1.
grex77
2011-10-04 16:18
Ja bym poprawił to: E||--0-0-1-1-3-3-1-0----------- B||---------------------------- na: E||--5-5-6-6-8-6-5------------- B||----------------------------
Wszelkie materiały i wypowiedzi zamieszczone na www.chords.pl są własnością ich autorów.