Zacznij systematycznie uczyć się grać na gitarze razem ze stroną Moja nauka - będziesz miał/miała do niej dostęp po zalogowaniu się w serwisie

Zabić strach - Lady Pank

Opracował -a: michicybo,
Pochodzi z: http://gitara.org/
Data publikacji: 2004-10-22 11:34
 
Moja nauka


Ups, problem :-/
Zaloguj się Mój śpiewnik
Wstep

---------0---------------------------------------------------------------
-----1h3----3------------1-1h3p1----------------8---8h10p8---------------
----------------------2-----------2--------------------------------------
------------------------------------2-------------9---9---------10--9----
--3--------------0-------------------------------------------------------
--------------------------------------0----------------------------------

---------0----------------------------------10/12------------------------
-----1h3----3------------1-1h3p1------------10/12---8h10p8---------------
----------------------2-----------2---------10/12-----------10--9--------
------------------------------------2------------------------------10----
--3--------------0-------------------------------------------------------
--------------------------------------0----------------------------------

                    sl
-------------------------------------------------------------------------
------------------6---5-------5--------------3----------3---------3------
----------------7-----5---------5---------------0---------0---------0----
--------------7-------5-----------5-------0----------0----------0--------
--8--7--5---5---------3-----3----------------------0----------2-------3/5
----------------------------------------3--------------------------------


Zwrotka
  C             a                   e          F         G                x2
-------0-------------------------------0---------------------------------
--1------1---1--1-------0h1p0-------0----0-----------1---------3---------
--0--------0----2-----2-------2-----0------0-------2---------4-----------
--2-------------2---2-----------2---2------------3---------5-------------
--3-------------0-------------------2----------3---------5---------------
------------------------------------0------------------------------------

  d           C           G                                               x2
------5----------3-------------------------------------------------------
--6-----6-----5----5----------3---------3----------3---------------------
--7-------7---5------5----------0---------0----------0-------------------
--7-----------5-------------0---------0---------0------------------------
--5-----------3---------------------0---------2-----------3/5------------
--------------------------3----------------------------------------------

Refren
  F                 G        a          F                           x4
--------------------3--3-----0----0---0----------------------------------
--1-----1--1--1-----3--3-----1----1---1------1---1-----1----1------------
--2-----2--2--2-----0--0-----2----2---2------2---0h2---0----2------------
--3-----3--3--3-----0--0-----2----2---2------3---3-----3----3------------
--3-----3--3--3-----2--2-----0----0---0------3---3-----3----3------------
--------------------3--3-------------------------------------------------



Przejscie

---------0-----------------------------------------------------------
-----1h3---3--------1---1h3p1----------------8---8--10---------------
------------------2-----------2--------------------------------------
--------------------------------2--------------9---9---------------------
--3-----------0----------------------------------------------------------
----------------------------------0--------------------------------------

Po przejsciu gramy zwrotke i refren jak wyzej. Koncowy refren gramy dluzej.

Po refrenie następuje solo .
Gitara akompaniujaca gra refren, z przejsciem do solowki ( w ostatniej linijce zwrotki ) :
Refren
  F              G          a              F       G
-----------------3----3-----0----0---0-----------------------------------
--1---1--1--1----3----3-----1----1---1-----1-------3---------------------
--2---2--2--2----0----0-----2----2---2-----2-------4---------------------
--3---3--3--3----0----0-----2----2---2-----3-------5---------------------
--3---3--3--3----2----2-----0----0---0-----3-------5---------------------
-----------------3----3--------------------------------------------------

solo
Gitara 1

|-------------------------------------------------------------------------
|--------10--10---------10--10---12p10p8----------------------------------
|------9--------------9---------------------9-9---9p7p5---5h7h9-----------
|-9-10-----------9-10-----------------------------------9-------7-7-------
|-------------------------------------------------------------------------
|-------------------------------------------------------------------------
|gitara 2
|   a             F          G            e           F       G   x2 potem refren
|---0---0--0------------------------------------------------------|-------
|---1---1--1------1----------3------------0---0--0----1-------3---|-----1-
|---2---2--2------2----------4------------0---0--0----2-------4---|-----2-
|---2---2--2------3----------5------------2---2--2----3-------5---|-----3-
|---0---0--0------3----------5------------2---2--2----3-------5---|-----3-
|-----------------------------------------0---0--0----------------|-------

gitara 1 solo ( dalej, gitara 2 gra te same funkcje )
                                                                  teraz ten refren
--------------------------------------------------------12-----|---
---------5--7-10/15---------8h10p8-------------------10--------|---
------5--------------12-12----------7h9p7-------7h9------------|---
--7-9----------------------------------------10----------------|---
---------------------------------------------------------------|---
---------------------------------------------------------------|---


Niestety, nie robilem koncowki instrumentalnej, gdyz gra sie tam caly czas
improwizacje do funkcji :
a       F  G            e       F  G



Zwrotka:

C   a   e     F G
C   a   e     F G
d   C   G
d   C   G
C   a   e     F G
C   a   e     F G
d   C   G
d   C   G


Refren:

F   G   a   F
F   G   a   F  G
Dodał: michicybo, 2013-03-16 14:57
Opracowania video z komentarzy

Dodaj komentarz ...i/lub link do filmiku video

Zaloguj się do serwisu
Ostatnie komentarze
1.
michicybo
2013-03-16 14:57
http://youtu.be/may6Ox2oNJA
2.
kikan
2013-02-18 10:10
Zapraszam do polubienia nas na facebooku. Prezentujemy tylko polskie solówki gitarowe http://www.facebook.com/polskiesolowki
3.
thewall
2007-01-10 20:19
hmm.. tak sie wsłuchiwałem przed czytaniem tej tabulatury i chyba tam jednak nie ma flażoletu. Na początku tez tak myslałem, ale przeciez zaraz po tym jest slide. Wiec chyba powinno byc tam plus minus: ---12_\--- ---12_\--- --12__\--- reszta chyba ok.
4.
pirat21wieka
2004-11-03 12:47
we wstępie (pierwsza tabulatura) po uderzeniu w pistą strunę E6 nie zaznaczono flażoletu na strunach wiolinowych na 12 progu.
Wszelkie materiały i wypowiedzi zamieszczone na www.chords.pl są własnością ich autorów.