Zacznij systematycznie uczyć się grać na gitarze razem ze stroną Moja nauka - będziesz miał/miała do niej dostęp po zalogowaniu się w serwisie

Znowu pada deszcz - Lady Pank

Opracował -a: michicybo,
Pochodzi z: http://www.chords.pl
Data publikacji: 2004-09-19 19:59
 
Moja nauka


Ups, problem :-/
Zaloguj się Mój śpiewnik
Wstęp:
I gitara, to samo gra się też w czasie zwrotki
E||--------------------------|--------------------------|
H||--------------------------|--------------------------|
G||--------------------0--3--|--------3-----------0-----| 
D||--------3--------0--------|-----3-----3-----2-----2--|
A||-----3-----3--------------|--1-----------3-----------|
E||--1-----------3-----------|--------------------------|

II gitara
E||------------------------|---------------------8--|------------------------|
H||-------6----5--6-----6--|-------6----5--6--------|-------6----5--6-----6--|
G||----5-------------5-----|----5-------------5-----|----5-------------5-----|
D||------------------------|------------------------|------------------------|
A||------------------------|------------------------|------------------------|
E||------------------------|------------------------|------------------------|



E||-----------------------|----------6--5--6--5--|-------------------|
H||-------6----5--6-------|----------------------|-------------------|
G||----5-------------5----|----------------------|-------------------|
D||-----------------------|----------------------|-------------------|
A||-----------------------|----------------------|-------------------|
E||-----------------------|----------------------|-------------------|



E||----------6--5--6--5--|-------------------||
H||----------------------|-------------------||
G||----------------------|-------------------||
D||----------------------|-------------------||
A||----------------------|-------------------||
E||----------------------|-------------------||

Refren:
E||------------------------|--------------------------||
H||------------------------|--------------------------||
G||--2---------------------|--------------------------||
D||--0----0--0--4----------|--------------2--------2--||
A||-------------2----2--2--|--5-----5-----0--0--0--0--||
E||------------------------|--3--3--3--3--------------||

Dalej:
E||--------------------------|---------------------------||
H||--------------------------|---------------------------||
G||--------------------------|---------------------------||
D||--3--3--3--3--5--5--5--5--|--------------2--2--2-2-2--||
A||--1--1--1--1--3--3--3--3--|--3--3--3--3--0--0--0---0--||
E||--------------------------|--1--1--1--1---------------||



Zwrotka:

F  g
B  C


Refren:

D h G A D
  h G A
  B C F A
  B C F A
  B C F A
  B C D
Dodał: Bartek Pawłowski, 2016-04-18 15:07
Opracowania video z komentarzy

Dodaj komentarz ...i/lub link do filmiku video

Zaloguj się do serwisu
Ostatnie komentarze
1.
wojtek_n
2014-10-20 00:43
Dokładnie takie wykonanie mi wyszło na podstawie tych tabów, dla chętnych zostawiam link do covera na yt ;)
2.
rolbromski
2011-08-09 15:42
ja gram to w inny sposób, wydaje mi się - wiele łatwiejszy i lepiej brzmi: |-----------------------------------| |-----------------------------------| |-----------------------------------| |-----3-------5------8--------10----| |---3---3---5--5---8---8---10----10-| |-1-------3------6-------8----------|
3.
tommyleejones1
2011-04-14 12:43
Akordy jak dla mnie super dobrane:) Pozdrawiam i dzięki za wstawkę
4.
kamilwk
2009-03-15 13:20
zamiast --9-8--9-8-----grać tak -8-8br8b8 --v---------
5.
smolarek30
2008-11-16 10:42
przydało by się solo
6.
toudisek
2007-08-30 16:51
do d... jest ta piosenka rozpisana. jak próbowałem ją zagrać dźwięki w ogóle nie pasowały.
7.
zuskaf
2007-05-20 21:58
mam taki maly problem, potrzeba mi solo z gitary z tej piosenki, dokladniej wtedy gdy schodzi w dół i zaczyna sie ostani sługi refren (to jest gdzies w polowie piosenki) Bylabym bardzo wdzieczna jakby ktos to napisal i z góry dziekuję (;
8.
kgbmarek
2004-12-02 20:34
y na bari leci troche inaczej ida inne dzwieki niz tu sa rozpisane
Wszelkie materiały i wypowiedzi zamieszczone na www.chords.pl są własnością ich autorów.