Zacznij systematycznie uczyć się grać na gitarze razem ze stroną Moja nauka - będziesz miał/miała do niej dostęp po zalogowaniu się w serwisie

Nana - Lady Pank

Opracował -a: Georgowski,
Dodał -a: Georgowski,
Redaktor: irontooth,
Pochodzi z: http://www.chords.pl
Data publikacji: 2010-02-14 22:21
 
Moja nauka


Ups, problem :-/
Zaloguj się Mój śpiewnik
Nana
E tuning


  intro/chorus          verse:
    A    D   H   E         A        A    D             A      E
e|-------------------|----------------------------------------------------|
H|--------3----------|---------------2h3--3--3p2---------------5--5-------|
G|---2----2---4---9--|------2-2--2---2(2)-2--2(2)-------2--2---6--6-------|
D|---2----0---4---7--|-5-4--2-2--2---2h4--4--4p2--------2--2---4--4-------|
A|---0--------2---7--|-3-2--0-0--0----------------------0--0--------------|
E|----------------0--|------------------------------3b5-------------------|

verse guitar 1
   F#              G               F#               G       E
|-----------------------------------------------------------------|
|-----------------------------------------------------------------|
|-----------------------------------------------------------------|
|--4--4-4-4-4-4-4--5--5-5-5-5-5-5--4--4-4-4-4-4-4---5-5-5---9-----|
|--4--4-4-4-4-4-4--5--5-5-5-5-5-5--4--4-4-4-4-4-4---5-5-5---7-----|
|--2--2-2-2-2-2-2--3--3-3-3-3-3-3--2--2-2-2-2-2-2---3-3-3---0-----|

verse guitar 2 w/clean
      H7sus4
|-------------------0--------------------------------0-------------|
|-----------0-----------0-------0-----------0------------0---------|
|--------2------2-----------2------------2------2------------------|
|---2/4-----------------------------2/4----------------------2-----|
|------------------------------------------------------------------|
|------------------------------------------------------------------|


Solo może w późniejszym terminie ;]

Legenda:

h       hammer-on
p       pull-off
b       podciągnięcie (bend)
r       rebend
tr      tryl
H       flażolet naturalny
A.H.    flażolet wymuszony
  palm muting
/       slide w górę
\       slide w dół
x       tłumienie strun
()      martwa nota
~       ręczne wibrato lub niech trwa
///     whammy bar w górę
\\\     whammy bar w dół
///\\\  whammy bar vibrato

Dodaj komentarz ...i/lub link do filmiku video

Zaloguj się do serwisu
Ostatnie komentarze
1.
pawell099
2017-01-18 22:24
Panie kolego dało by rade solo :D
Wszelkie materiały i wypowiedzi zamieszczone na www.chords.pl są własnością ich autorów.