Zacznij systematycznie uczyć się grać na gitarze razem ze stroną Moja nauka - będziesz miał/miała do niej dostęp po zalogowaniu się w serwisie

Latać może każdy - Lady Pank

Opracowali: michicybo, slicker,
Dodał -a: slicker,
Pochodzi z: http://www.chords.pl
Data publikacji: 2004-12-03 23:07
 
Moja nauka


Ups, problem :-/
Zaloguj się Mój śpiewnik


Zwrotka:

D
fis   G
D
fis   G   A
D  G  A


Refren:

fis  G  D  A

Solo dodane przez użytkownika slicker:

e1|---0----------0-3-2-0---------------------------------------0---------0-3-2-0---------------|
H2|-3---3------3---------3-2---2-0-2p0-2---0-3-5b6r5-3-------3---3-----3---------3-2---2-0-2p0-|
G3|-------2--------------------------------------------4-2---------2---------------------------|
D4|--------------------------------------------------------------------------------------------|
A5|--------------------------------------------------------------------------------------------|
E6|--------------------------------------------------------------------------------------------|

e1|----------------------0-0-0-0-2-3-5-2---------2-0---------|
H2|-0--0-3-5b6r5-3-----------------------3---0-------2-------|
G3|----------------4-2---------------------2-----------2-----|
D4|----------------------------------------------------------|
A5|----------------------------------------------------------|
E6|----------------------------------------------------------|

Dodaj komentarz ...i/lub link do filmiku video

Zaloguj się do serwisu
Ostatnie komentarze
1.
koza142
2006-06-09 13:26
Dla zainteresowanych wersią rozpisaną na 2 gitary, bas i perkusję a także wokal: - piszcie na adres koza142@wp.pl - mogę podesłać PS. Mogę wysłać także samą solówkę
2.
switton
2005-05-03 14:47
Zwrotka: D Fis G D Fis G A D G A Ref: Fis G A D
Wszelkie materiały i wypowiedzi zamieszczone na www.chords.pl są własnością ich autorów.