Zacznij systematycznie uczyć się grać na gitarze razem ze stroną Moja nauka - będziesz miał/miała do niej dostęp po zalogowaniu się w serwisie

Dziewczyny dzisiaj z byle kim nie tańczą (tab) - Lady Pank

Opracował -a: Jaskier94,
Dodał -a: Jaskier94,
Redaktor: Seba,
Pochodzi z: http://www.chords.pl
Data publikacji: 2011-09-03 16:40, Poprawiono 2012-01-10 17:29
 
Moja nauka


Ups, problem :-/
Zaloguj się Mój śpiewnik
INTRO=REFREN

 D2             E             D2      E
---------------------0----------------------------|
-3-3-3-3-3----------0-0----3-3-3-3-3--------------|
-2-2-2-2-2----1-1--1---1---2-2-2-2-2--1-----------|
--------------2-2-2-------------------2-----------|
--------------2-2---------------------2-2-4-2-0---|
--------------------------------------------------|


 D2             E           D2          E (mocno uderzamy w cały chwyt, tak jak w piosence)
--------------------0------------------|
-3-3-3-3-3---------0-0-----3-3-3-3-3-|
-2-2-2-2-2---1-1--1---1----2-2-2-2-2-|
-------------2-2-2-------------------|
-------------2-2---------------------|
-------------------------------------|



ZWROTKA

----------------------------------------------|
----------------------------------------------|
--------------------9-------------------------|
---------------6-7-9-9-7---4-4-4-4------------|
-7-7-7-7-7--9-9------------2-2-2-2-4-4-4-4-4--|
-5-5-5-5-5--7----------------------2-2-2-2-2--|



ZAGRYWKA SOLOWA


-------------------------------------------------------------------|
-------------------------------------------------------------------|
-9-9-9-7-6----7------9-9-9-7-6-------------------------------------|
-----------9-9-9-7-------------9-9-9-14-14-14-18-18-18-21-21-21-21-|
-------------------------------------------------------------------|
-------------------------------------------------------------------|

Opracowanie:

Łukasz Rosa
Dodał: kamil1999, 2015-04-29 22:20
Opracowania video z komentarzy

Dodaj komentarz ...i/lub link do filmiku video

Zaloguj się do serwisu
Ostatnie komentarze
1.
krystiano6
2013-03-05 19:28
w zwrotce D E A fis
2.
elo3
2012-01-20 11:08
bardzo dalekie od oryginału .......
Wszelkie materiały i wypowiedzi zamieszczone na www.chords.pl są własnością ich autorów.