Zacznij systematycznie uczyć się grać na gitarze razem ze stroną Moja nauka - będziesz miał/miała do niej dostęp po zalogowaniu się w serwisie

Zawsze tam gdzie Ty (Zagrywka) - Lady Pank

Opracował -a: zagrywka,
Dodał -a: zagrywka,
Redaktor: zagrywka,
Pochodzi z: http://www.istv.pl/program,_,zagrywka,s1,e27,ladypankzawszetamgdziety.html
Data publikacji: 2012-11-07 12:48, Poprawiono 2012-11-07 13:25
 
Moja nauka


Ups, problem :-/
Zaloguj się Mój śpiewnik
wstęp:

e|--0--0-0-0-0-0-----0-0-0-0-0------3----3-3-----8----8----3---3---3-----|
B|--1--1-1-3-1-0-1---5-5-3-1-0-3----3----3-3-----8h10-8----3h5-3---3h5---|
G|--0------------2-------------0----0----0-0---------------------5-------|
D|--2------------2-------------0----0----0-0-----------------------------|
A|--3------------0-------------2-----------------------------------------|
E|--------------------------------3----3---------------------------------|

zwrotka:

e|------------------------------------------------------|
B|------1-----1-----1-----1-----1-----1-----1-------1---|
G|----0-----0-----0-----0-----0-----0-----0---0---0-----|
D|----------------------------------------------3-------|
A|--3-----3-----0-----0---------------------------------|
E|--------------------------3-----3-----3---------------|

refren:
F G C a x2
F G

ostatnie refreny:
F G C a
Dodał: marxapril, 2018-08-26 22:09
Opracowania video z komentarzy

Dodaj komentarz ...i/lub link do filmiku video

Zaloguj się do serwisu
Ostatnie komentarze
1.
artix2001
2013-07-16 12:58
Ta piosenka jest genialna ... Thx za tabulature
2.
argandii
2012-11-11 19:46
Muszę przyznać że bardzo dobre opracowanie :) nie znam chwytów gram ze słuchu i to dopiero 4 dni a udało mi się zagrać całość troche wolniej ale właściwe chwyty :)
Wszelkie materiały i wypowiedzi zamieszczone na www.chords.pl są własnością ich autorów.