Zacznij systematycznie uczyć się grać na gitarze razem ze stroną Moja nauka - będziesz miał/miała do niej dostęp po zalogowaniu się w serwisie

Zasypiam nad ranem (tab) - Lady Pank

Opracował -a: Jaskier94,
Dodał -a: Jaskier94,
Redaktor: SEBEK1304,
Pochodzi z: http://www.chords.pl
Data publikacji: 2011-09-04 20:52
 
Moja nauka


Ups, problem :-/
Zaloguj się Mój śpiewnik
Intro

----------3--x3|-----------3-5-
---------3-3-x3|----------3----
---9---------x3|--7-9----------
-----5-7-----x3|------5-7------
-------------x3|---------------
-------------x3|---------------

Zwrotka

   C       F     G   a
-0-0-0-0--1-1----3---0---------
-1-1-1-1--1-1----3---1---------
-0-0-0-0--2-2----0---2---------
-2-2-2-2--3-3----0---2---------
-3-3-3-3--3-3----2-------------
-3-3-3-3---------3-------------

Refren: wyłącznie chwyty e, F, G

SOLO

--7-8-7--7-8-7--7-8-7----5-----------------------------
-------8------8------8--5----8-5-----------------------
---------------------------------7-5----7-7-7-5--------
-------------------------------------7----------7------
-------------------------------------------------------
-------------------------------------------------------

--7-8-7--7-8-7--7-8-7-----------5----------------------
-------8------8------8---8-8-8-5--8-8-8-5-0------------
-------------------------------------------------------
-------------------------------------------------------
-------------------------------------------------------
-------------------------------------------------------

--7-8-7---7-8-7---7-8-7-----7r9---7--------------------
-------8--------8-------8-8---------9-7-5-7-7-5--------
------------------------------------------------6------
-------------------------------------------------------
-------------------------------------------------------
-------------------------------------------------------

--7-8-7---7-8-7--7-8-7-------------------------------------15b17-
-------8-------8------8---15-17-15---------------15h17p15--------
-----------------------------------17-15-----------------17------
-----------------------------------------17-15-17----------------
-----------------------------------------------------------------
-----------------------------------------------------------------


Opracowanie:

Łukasz Rosa

Dodaj komentarz ...i/lub link do filmiku video

Zaloguj się do serwisu
Wszelkie materiały i wypowiedzi zamieszczone na www.chords.pl są własnością ich autorów.