Zacznij systematycznie uczyć się grać na gitarze razem ze stroną Moja nauka - będziesz miał/miała do niej dostęp po zalogowaniu się w serwisie

Młode orły - Lady Pank

Opracował -a: michicybo,
Pochodzi z: http://www.chords.pl
Data publikacji: 2004-11-11 21:30
 
Moja nauka


Ups, problem :-/
Zaloguj się Mój śpiewnik
Wstęp:

-----8-5--------------------------8-7/8------------------------
5-/6------------------------5-/6-----------------------5-6-5-6-
------------------5-2----------------------------5-2-----------
-------------2-/3--------------------------2-/3----------------
---------------------------------------------------------------
---------------------------------------------------------------


----------------
-5-6-5-6-5------
-----------7-5--
----------------
----------------
----------------

Zwrotka:
 a        G                                     F       G
-------------3--------------------------------------------3----
-5---5----3----3----5--------5-----------3------1-1-----3---3--
-5---5----4------4--5--------5-------4-----4----2-2-----4-----4
-7---7----5---------7--------7-------5-------5--3-3-----5------
-7---7----5---------7--------7-------5----------3-3-----5------
-------------------------------------3-------------------------
 Ona była wodą a on brzegiem pustych plaż,      Małe okręty


 F            G
-----------------3------
-1------1-----3----3----
-2------2-----4------4--
-3------3-----5---------
-3------3-----5---------
------------------------
 dzieci bez skaz...       itd...

Potem gra się znów wstęp i znowu zwrotkę a potem refren.


Refren:

Gitara I
 G              a     G   a    G              a        G      a
-3---3-----3-3--------3-3------3---3-----3-3-----------3--3------
-3---3-----3-3--1-1---3-3-1-1--3---3-----3-3--1-1------3--3---1--
-0---0-----0-0--2-2---0-0-2-2--0---0-----0-0--2-2------0--0---2--
-0---0-----0-0--2-2---0-0-2-2--0---0-----0-0--2-2------0--0---2--
-2---2-----2-2--0-0---2-2-0-0--2---2-----2-2--0-0------2--2---0--
-3---3-----3-3--------3-3------3---3-----3-3-----------3--3------
 Tak jak młode orły...         Tak jak młode orły...


Gitara II
-------------------------------------------------------12-10-12--
-----------------------5-3-5---------------------10-10-----------
-------------------2-2-------------------------------------------
-----------------------------------------------------------------
-----------------------------------------------------------------
-----------------------------------------------------------------


Gitara I
 G               a       G   a  G            a    G       F
-3---3-----3-3-----------3-3----3---3---3--3------3---3-3-1----1-
-3---3-----3-3---1-1-----3-3-1--3---3---3--3-1-1--3---3-3-1----1-
-0---0-----0-0---2-2-----0-0-2--0---0---0--0-2-2--0---0-0-2----2-
-0---0-----0-0---2-2-----0-0-2--0---0---0--0-2-2--0---0-0-3----3-
-2---2-----2-2---0-0-----2-2-0--2---2---2--2-0-0--2---2-2-3----3-
-3---3-----3-3-----------3-3----3---3---3--3------3---3-3--------
 Tak jak młode lwy...           Tak jak ja i ty - Kochali się...


Gitara II
-----------------------------------------------------------------
-------------------------5-3-5-----------------------------------
---------------------2-2-----------------------------------------
-----------------------------------------------------------------
-----------------------------------------------------------------
-----------------------------------------------------------------

Potem gra się zwrotkę normalnie i refren, ale na koniec refrenu gra
się coś takiego:

    G      F
----3--3-3-1----1--3--
----3--3-3-1----1--3--
----0--0-0-2----2--4--
----0--0-0-3----3--5--
----2--2-2-3----3--5--
----3--3-3---------3--
...kochali się

Po akordzie barrowym G dalej jest przejście:

Przejście:

Gitara I
 a                         a
-5-5-----------------------5------------    przejście powtórzyć 4 razy
-5-5-----------------------5------------
-5-5-----------------------5------------
-7-7-----------------------7------------
-7-7-----------------------7------------
----------------------------------------


Gitara II
-----8-8-7--5---5-5-3-5--0--------------
-----8-8-7--5---5-5-3-5--1--------------
----------------------------------------
----------------------------------------
----------------------------------------
----------------------------------------

Po przejściu jest zwrotka: "...czy widzisz tę zgraję,...", a po niej
jest refren. Po refrenie NATO miast zakończenie. Gra się podobnie jak
początek czyli wstęp... Jakieś sugeste to proszę o kontakt...


a        G              a             G
Ona była wodą - a on brzegiem pustych plaż
F       G     F          G
Małe okręty - dzieci bez skaz...                itd.



Refren:

   G             a
Tak jak młode orły...
G             a
Tak jak młode orły...
G             a
Tak jak młode lwy...
G            a    F       G
Tak jak Ja i Ty - kochali się
Dodał: Janek, 2017-12-31 13:05
Opracowania video z komentarzy

Dodaj komentarz ...i/lub link do filmiku video

Zaloguj się do serwisu
Ostatnie komentarze
1.
milenak
2017-11-15 13:09
W linku bardzo piękne wykonaniu "Młodych Orłów"
2.
tomkez
2009-06-13 14:32
Zapomniałeś to uaktualnić, bo źle jest, a taka fajna piosenka, Pierwszy wers zwrotki gramy amolem dodając jeszcze mały palec na trzecim progu struny H, oczywiście momentami go odrywając na przemian z palcem na pierwszym progu struny H, no ale "baza" to amol. Drugi wers jest dobrze, a refren to zaczynamy od Dedur, amol, Giedur, amol.
Wszelkie materiały i wypowiedzi zamieszczone na www.chords.pl są własnością ich autorów.