Zacznij systematycznie uczyć się grać na gitarze razem ze stroną Moja nauka - będziesz miał/miała do niej dostęp po zalogowaniu się w serwisie

Stacja - alienacja - Lady Pank

Opracował -a: michicybo,
Pochodzi z: http://gitara.org/
Data publikacji: 2004-09-25 23:36
 
Moja nauka


Ups, problem :-/
Zaloguj się Mój śpiewnik
 Intro
====== Git. elektryczna          x2
|----------------------------|
|----------------------------|
|*--------7------------7----*|
|*---------9-9----------9-9-*|
|--7-7--7---7---7-7--7---7---|
|----------------------------|

 Zwrotka
========
|----------------------------|----------------------------|
|----------------------------|----------------------------| Każdy takt
|*--------7------------7----*|*--------3------------3----*| po dwa razy
|*---------9-9----------9-9-*|*---------5-5----------5-5-*|
|--7-7--7---7---7-7--7---7---|--3-3--3---3---3-3--3---3---|
|----------------------------|----------------------------|
   "Stacja...alienacja....."

 Refren
========
G          D      C        D B
Poprzeczke trzeba podnosić....
(itd. wszystkie chwyty barowe !)


 II Zwrotka
===========
 Pozniej Janek podczas zwrotki gra cos takiego:
 Gitara 1, bez zmian.
|---------------------------------|----------------------|
|---------------------------------|----5-5-5-5-5-5-5-5---| Każdy takt
|*--------7/9\7/9--------7/9\7/9-*|*---5-5-5-5-5-5-5-5--*| po dwa razy
|*-------------------------------*|*---5-5-5-5-5-5-5-5--*|
|--7-7--x---------7-7--x----------|--3-------------------|
|---------------------------------|----------------------|
 (Poczas slidów 7/9\7/9 uderzasz tylko pierwszy dzwiek kostka!!!)
 (555 lekko tłumić i puszczac delikatnie po zagranym dzwieku)


Zwrotka:

e7
C7


Refren:

G  D  C  D
G  D  C  B

Dodaj komentarz ...i/lub link do filmiku video

Zaloguj się do serwisu
Ostatnie komentarze
1.
tasior82
2007-09-15 16:46
tabulatura jest mojego autorstwa - super ze jakos sie dostala do netu :) pozdro - Michicybo powiedz skad to wykopałeś :) ?
Wszelkie materiały i wypowiedzi zamieszczone na www.chords.pl są własnością ich autorów.