Zacznij systematycznie uczyć się grać na gitarze razem ze stroną Moja nauka - będziesz miał/miała do niej dostęp po zalogowaniu się w serwisie

Bez satysfakcji - Lady Pank

Opracował -a: michicybo,
Pochodzi z: http://gitara.org/
Data publikacji: 2004-10-11 23:29
 
Moja nauka


Ups, problem :-/
Zaloguj się Mój śpiewnik
Wstęp

--------------------------------------------------------
--------------------------------------------------------
--------------------------------------------------------
--------------------------------------------------------
----0--0--2--4--2------0--0--2--4--2--4-----------------
--0------------------0----------------------------------

Zwrotka

--------------------------------------------------------
-----------------------------------sl-------------------
--2--2---------------------------9-\-7------------------
--2--2--x---9--9--x---7--7-x--9--7-\-5------------------
--0--0--x---7--7--x---5--5-x--7-------------------------
--------------------------------------------------------

Refren                                                      X2
--1-------------3---------------------------------------------
--1--1------1---3--3-----3---7--------------------------------
--2--2--2---2---4--4--4--4---7----7--6--4--2------------------
--3--3--3---3---5--5--5--5---7--------------------------------
--3-----3-------5-----5--5---5------------------2-----0-------
--1-------------3---------------------------------------2--0--



Zwrotka:

A  E  D  E   4x


Przejście:

F   G   A    2x


Refren:

A  h7  cis7  D  E
Dodał: Janek, 2017-12-31 13:10
Opracowania video z komentarzy

Dodaj komentarz ...i/lub link do filmiku video

Zaloguj się do serwisu
Ostatnie komentarze
1.
rodzina123
2006-03-12 14:49
mam mp3 z tym nagraniem ( solo wg komentarza - w Budce Suflera )
2.
rodzina123
2006-01-08 14:38
z tego wszystkiego nie nadmieniłem , że chodzi mi o gitarkę w refrenie ...( głowa stara - skleroza chyba czy jak ? )
3.
rodzina123
2006-01-08 14:36
bardzo ładnie gra gitara P. Borysewicza ( a nie " Janka " - jak to piszą niektórzy gówniarze - a mógłby On być ich tatą ) napisałem ją przy tej piosence w dziale Budka Suflera - nie ma więc sensu pisać tu jeszcze raz... zachęcam do zobaczenia - bo nie jest to specjalnie trudne - a gitarowo ciekawie skomponowane ( przez JB oczywiście ) solo tam też napiszę ... raz już pisałem ale długo jakoś mi szło i się wylogowałem .. tymczasowo się zdenerwowałem ale napiszę ...
4.
rodzina123
2006-01-08 14:30
absolutnie nie zgadzam się ze zwrotką - riff leci tak : e------------------ --------------------- h--2--2----5--5-- --7--7---9---10--9- g--2--2----4--4-- --7--7---9----9--9- d--2--2----6--6-- --7--7---9---11--9- a--0--0----7--7-- --0--0--------------- e----------------- ----------------------
5.
rodzina123
2005-12-27 23:49
chyba jestem zmuszony nie zgodzić się z autorem opracowania ... swoje propozycje wstępu i refrenu podałem przy tejże pieśni ale w Budce Suflera - w komentarzu pozdrawiam z Łodzi
Wszelkie materiały i wypowiedzi zamieszczone na www.chords.pl są własnością ich autorów.