Zacznij systematycznie uczyć się grać na gitarze razem ze stroną Moja nauka - będziesz miał/miała do niej dostęp po zalogowaniu się w serwisie

Mój Świat bez Ciebie (tab) - Lady Pank

Opracował -a: Jaskier94,
Dodał -a: Jaskier94,
Redaktor: Seba,
Pochodzi z: http://www.chords.pl
Data publikacji: 2011-09-03 16:41, Poprawiono 2011-11-13 17:37
 
Moja nauka


Ups, problem :-/
Zaloguj się Mój śpiewnik
akordy do intro gramy z refrenu
Intro=Outro

e--------------------------------------------|
h-------8-10-10-7-7----7/3-5-5/7-5-3-3-0-3-5-|
g----11-------------9------------------------|
d--------------------------------------------|
a--------------------------------------------|
E--------------------------------------------|

Zwrotka
  h      G       A           G       Fis
-----|-----|-----------|--------|--------|
---2-|-----|-----------|----3---|----2---|
-----|---4-|---6-6h7p6-|---4-4--|---3-3--|
--4--|--5--|--7--------|-5----5-|--4---4-|
-2---|-5---|-7---------|--5-----|-4------|
-----|-----|-----------|--------|--------|

Refren

same chwyty w wersji barowej:

D, A, h, G, A


Solo:

h  G  A        grane po 2x
h  G  A  fis

---------------|2x|------------------------|------------------|
------10/7-7---|2x|----------7-------------|------------------|
---------------|2x|------7h9---9-7h9-9-7-6-|-7-6--------------|
-7/9-----------|2x|--7/9-------------------|-----9-7-7h9-9----|
---------------|2x|------------------------|------------------|
---------------|2x|------------------------|------------------|

-----------------------|-------------|---------------------------------|
-----------------------|-------------|-------------13b15-12-12-12-12---|
-----11-11-11--9-7-9-7-|-----7-9-9/11|-------12-14---------------------|
-7-9-------------------|-7/9---------|-12/14---------------------------|
-----------------------|-------------|---------------------------------|
-----------------------|-------------|---------------------------------|

------------------------------|------------------------|----------|
--------13--13b15-15-15-13-15-|-12-15-15b17-17-17-15-14|-15-14-12-|
--12/14-----------------------|------------------------|----------|
------------------------------|------------------------|----------|
------------------------------|------------------------|----------|
------------------------------|------------------------|----------|

------------------------|----------------------------------|----------------------3-------|
------------------------|----------------------------------|--------------------5--5-5-3-5|
-9-7--7b9-7b9-9-7-9-7b9-|--9-7-7b9-7b9-9-7-9-7b9-7b9-9-7-9-|--9-7-6--7-6----7-9-----------|
------------------------|----------------------------------|------------9--9--------------|
------------------------|----------------------------------|------------------------------|
------------------------|----------------------------------|------------------------------|


Opracowanie

Łukasz Rosa.
Dodał: Bartek Pawłowski, 2015-11-11 15:45
Opracowania video z komentarzy

Dodaj komentarz ...i/lub link do filmiku video

Zaloguj się do serwisu
Ostatnie komentarze
1.
trybik1969
2016-03-24 16:12
witam moze ktos podac pelne funkcje na bass do tego utworu?
2.
petlica
2011-11-13 17:44
Skończmy już pisać tą sama melodię na 10 różnych sposobów. Dźwięk na 11 progu na strunie G to samo co 7 na strunie H. Każdy gra jak mu wygodnie. Zmieniłem w opracowaniu sl na slash-e dla jasności opracowania, które wdaje się być ok. Pozdr petlica
3.
Jaskier94
2011-11-12 19:05
Puść kolego to razem z piosenką, bo już ten dźwięk na 7 progu kompletnie nie pasuje do tonacji. Może brzmieć podobnie, ale tu chodzi o odwzorowanie oryginału. W przesłanym opracowaniu macie gwarancję, że jest jak w piosence. To, że jesteś przekonany to już Twój problem. Nie neguję tego zatem, ale ja nie lubię fałszować. Pzdr.
4.
robert15
2011-11-11 22:15
Intro powinno być takie: E|---------------------------------------| H|-7-8-10-8-7-5/7---------7--------------| G|----------------9--7/9----9-7-7---7/9--| D|--------------------------------9------| A|---------------------------------------| E|---------------------------------------|
5.
toudisek
2011-11-08 20:05
|------------------------|-----------------------------| |------7-8-10-8-7-6/7----|-----7-----------------------| |---------------------9--|-7-9--9-7-7---7-7h9----------| |------------------------|------------9----------------| |------------------------|-----------------------------| |------------------------|-----------------------------| ja to gram tak i jestem przekonany, że jest dobrze
6.
nerger
2011-10-22 22:06
Witam, moim skromnym zdaniem to intro jest przekombinowane. Wydaje mi się że to powinno być coś takiego: |----------------------------|-----------------------------| |----------------------------|-----------------------------| |-------8-10-8---------------|--------7--------------------| |----11--------11--10/11--9--|--6/7-9---9--7-7---7-8/9-----| |----------------------------|-----------------9-----------| |----------------------------|-----------------------------|
7.
elo3
2011-10-19 14:46
co do intro to też się zgadzam od D
8.
petlica
2011-10-05 08:59
Moja propozycja do intro Intro=Outro |------------------------------|---------------------------------| |--7-8-10--10/8-7---5/7~--5~---|-5/3-5-5/7-5~--3~---3---3-3/5~---| |------------------------------|----------------------4----------| |------------------------------|---------------------------------| |------------------------------|---------------------------------| |------------------------------|---------------------------------|
9.
Jaskier94
2011-10-02 19:15
Spoko, jutro dostanę rano struny to Ci nagram. Wiem że pod koniec mi się dźwięki chyba nie zgadzały, więc możesz mieć rację :) Ale 3/4 powinno być spoko. Z resztą ja to solo improwizuję jak gdzieś gram, to jest zbyt ograniczone. Pozdro!
10.
ledi11
2011-10-02 00:19
Jaskier94 - tak sugerowałem się twoją tabulaturą i jakoś mi nie pasowało to solo. Większa część jest od Ciebie przeniesiona. Wiesz jestem początkujący i mogę się mylić. Mógłbyś wrzucić filmik jak grasz to solo?
Wszelkie materiały i wypowiedzi zamieszczone na www.chords.pl są własnością ich autorów.