Zacznij systematycznie uczyć się grać na gitarze razem ze stroną Moja nauka - będziesz miał/miała do niej dostęp po zalogowaniu się w serwisie

Zakłócenie porządku - Lady Pank

Opracował -a: michicybo,
Pochodzi z: http://www.chords.pl
Data publikacji: 2005-06-20 00:10
 
Moja nauka


Ups, problem :-/
Zaloguj się Mój śpiewnik
  h                   C
-----------------------------------
-----------------------------------
-----------------------------------
------4-------4-----4-5-4-5-4-2-0--
--2-2---2-2-2---2-2----------------
-----------------------------------



-7-7-7-7-7-7---
-7-7-7-7-7-7---
---------------
---------------
---------------
---------------



-14---12-----14-----19--
---15---12-----15-17----
------------------------
------------------------
------------------------
------------------------

Dodaj komentarz ...i/lub link do filmiku video

Zaloguj się do serwisu
Ostatnie komentarze
1.
tomkez
2012-05-04 12:31
Dobrze :-)
2.
petlica
2012-05-03 16:49
Coś tych nawiasów nie chce wyświetlać. Przepisałem wg opisu, mam nadzieję że dobrze. |--------12-----------12--7---| |--7--------12--7-------------| |-----7------------7----------| |-----------------------------| |-----------------------------| |-----------------------------| NH........................... pozdr
3.
tomkez
2012-05-03 12:44
:-) siódmy próg po kolei struna H i G, dwunasty próg struna E i H siódmy próg struna H i G i końcówka na dwunastym struna E i na siódmym struna E
4.
tomkez
2012-05-03 12:39
flażolety ---------------------------- ----------------------------- --------------------------------- --------------------------------------- --------------------------------------- ---------------------------------------
Wszelkie materiały i wypowiedzi zamieszczone na www.chords.pl są własnością ich autorów.