Zacznij systematycznie uczyć się grać na gitarze razem ze stroną Moja nauka - będziesz miał/miała do niej dostęp po zalogowaniu się w serwisie

Ratuj tylko mnie! - Lady Pank

Opracował -a: michicybo,
Pochodzi z: http://www.chords.pl
Data publikacji: 2004-11-24 21:31
 
Moja nauka


Ups, problem :-/
Zaloguj się Mój śpiewnik
Wstęp:

------------------------------------------
------------------------------------------
------------------------------------------
-------7-------------------7--------------
--5----5----2----2----5----5----2----2----
--3---------0----0----3---------0----0----


Druga gitarka:

--3---2----3---2----0---------0-----------
--------3--------3------3--0------3--0----
------------------------------------------
------------------------------------------
------------------------------------------
------------------------------------------

------------------------------------------
------------------------------------------
-----2---0--------------------------------
--0---------------------------------------
------------------------------------------
------------------------------------------


Zrwotka:

G   D                 e
  Siostro ma w bieli ratuj, ratuj mnie!...    itd.


Przejście:

D             e            C     G
Kiedy się pochylasz czule nad innymi,
D      e            C               G
To rozdajesz w pocałunkach nagłą śmierć...


Refren:

 G           D             e
Ratuj mnie! Ratuj tylko mnie!...    2x
Dodał: michicybo, 2012-10-25 12:37
Opracowania video z komentarzy

Dodaj komentarz ...i/lub link do filmiku video

Zaloguj się do serwisu
Ostatnie komentarze
1.
Damianstrato
2008-10-13 19:57
Dzwięki poprawne, tyle że w oryginale Jan gra to flażoletami
Wszelkie materiały i wypowiedzi zamieszczone na www.chords.pl są własnością ich autorów.