Zacznij systematycznie uczyć się grać na gitarze razem ze stroną Moja nauka - będziesz miał/miała do niej dostęp po zalogowaniu się w serwisie

Nie wpychaj mnie w to dno (intro) - Lady Pank

Opracował -a: tomkez,
Dodał -a: tomkez,
Redaktor: SEBEK1304,
Pochodzi z: http://www.chords.pl
Data publikacji: 2010-08-16 00:01, Poprawiono 2010-08-21 11:14
 
Moja nauka


Ups, problem :-/
Zaloguj się Mój śpiewnik
intro

2x
-----------------------------0---
-----------------------------3--
-----------4-2-----0-2-4-----0--
---------------5-4-----------2--
-------2-5----------------3--3--
-0-2-3--------------------------


-0-------------------------------
-3-------3------------------------
-0----2--2-------------------------
-2-------0------------------------
-3--2----2--------------------------
--------------------------------

przed zwrotką jeszcze jest zagrywka
A A C A D D D G G H G

Dodaj komentarz ...i/lub link do filmiku video

Zaloguj się do serwisu
Ostatnie komentarze
1.
obein
2010-08-22 14:28
nawet brzmi:) jakby cos jeszcze z tej płyty to ja bardzo chętnie - jestem za :):)
Wszelkie materiały i wypowiedzi zamieszczone na www.chords.pl są własnością ich autorów.