Zacznij systematycznie uczyć się grać na gitarze razem ze stroną Moja nauka - będziesz miał/miała do niej dostęp po zalogowaniu się w serwisie

Zawsze tam gdzie Ty (taby) - Lady Pank

Opracował -a: loompy100,
Redaktor: Jonasz,
Pochodzi z: http://www.chords.pl
Data publikacji: 2009-05-15 22:11, Poprawiono 2009-05-16 15:33
 
Moja nauka


Ups, problem :-/
Zaloguj się Mój śpiewnik
Intro

|---------------------------------3----3---3-----------|
|--1-----1--1--1h3--1--0----1-----3h5--5---3h5p3-------|
|--0-----0--0--0----0--0----2-----0----0---0-------5-4-|
|--2-----2--2--2----2--2----2--------------------------|
|--3-----3--3-------3--3----0--------------------------|
|------------------------------------------------------|


|--3-----3-----3--3-----8-----8------------------------|
|--3-----3-----3--3-----8h10--8--8----8----------------|
|--4-----4-----4--4--------------7h9--7h9p7----7h9 ----|
|--5-----5-----5--5-------------------------10---------|
|--5--x--5--x--5--5------------------------------------|
|--3--x--3--x--3--3------------------------------------|   x2

Zwrotka 1

|---------------------|---------------------|
|-------1-----------1-|--------1----------1-|
|----0-----------0----|-----0----------0----|
|---------------------|---------------------|
|-3----------3--------|-0----------0--------|
|---------------------|---------------------|

|---------------------|---------------------|
|-------1-----------1-|--------1----------1-|
|----0-----------0----|-----0-----0---0-----|
|---------------------|-------------3-------|
|---------------------|---------------------|
|-3----------3--------|-3-------------------|

Refren

|--1-----1---1---1--|--3-----3---3---3--|
|--1-----1---1---1--|--3-----3---3---3--|
|--2-----2---2---2--|--0-----0---0---0--|
|--3-----3---3---3--|--0-----0---0---0--|
|--3-----3---3---3--|--2-----2---2---3--|
|--1-----1---1---1--|--3-----3---3---3--|

|------------0--0-0-|--0-----0--0--0--0-|
|------------1--1-1-|--1-----1--3--1--0-|
|----------0----0-0-|--2-----2--2--2--2-|
|--------2------2-2-|--2-----2--2--2--2-|
|-0-2-3---------3-3-|--0-----0--0--0--0-|
|---------------3-3-|-------------------|

|--1-----1---1---1--|--3-----3---3---3--|
|--1-----1---1---1--|--3-----3---3---3--|
|--2-----2---2---2--|--0-----0---0---0--|
|--3-----3---3---3--|--0-----0---0---0--|
|--3-----3---3---3--|--2-----2---2---3--|
|--1-----1---1---1--|--3-----3---3---3--|

|------------0--0-0-|--0------------------1-|
|------------1--1-1-|--1--1h3-3-1h3p1-1-0-1-|
|----------0----0-0-|--2------------------2-|
|--------2------2-2-|--2------------------3-|
|-0-2-3---------3-3-|--0------------------3-|
|---------------3-3-|---------------------1-|

|--1-----1---1---1--|--3-----3---3---3-x-|--8-----8-------------|
|--1-----1---1---1--|--3-----3---3---3-x-|--8h10--8--8----8-----|
|--2-----2---2---2--|--0-----0---0---0-x-|-----------7h9--7h9p7-|
|--3-----3---3---3--|--0-----0---0---0-x-|----------------------|
|--3-----3---3---3--|--2-----2---2---3-x-|----------------------|
|--1-----1---1---1--|--3-----3---3---3-x-|----------------------|


Zwrotka 2

|---------------------|---------------------|
|-------1-----------1-|--------1----------1-|
|----0-----------0----|-----0----------0----|
|---------------------|---------------------|
|-3----------3--------|-0----------0--------|
|---------------------|---------------------|

|---------------------|---------------------|
|-------1-----------1-|--------1---------1--|
|----0-----------0----|-----0---------0-----|
|---------------------|------------3--------|
|---------------------|---------------------|
|-3----------3--------|-3-------------------|


Solo

  C              a           F           G
|------------|-----------|-----------|-----------|
|---------8~-|-----------|--------8~-|-----------|
|------------|-----------|-----------|-----------|
|---9-10-----|---9-10--7~|---9-10----|--9-10--10~|
|------------|-----------|-----------|-----------|
|------------|-----------|-----------|-----------|

   C            a           F           G
|-----------|------------|----------|--------|
|--------8~-|------------|----------|--------|
|-----------|------------|----------|--------|
|---9-10----|---9-10--7~-|--9-10----|---10~--|
|-----------|------------|-------10~|--------|
|-----------|------------|----------|--------|

Taby opracowane przeze mnie, możne nie wszystko jak w oryginale ale podobnie, 
radze się nauczyć skali C-dur, można zaimprowizować :) Mam nadzieje że 
pomogłem, jak co to pytania na maila blueaina18@wp.pl. Gdyby komuś pomogło 
obejrzenie filmiku to tu: www.youtube.com/user/loompy100/ jest moje wykonanie, 
na początku,może trochę trudno odczytać taby ale po chwili można załapać :P

   C-dur     w 2 pozycjach :

|-----------------------------------7-8-10-----15-13-12------------------------------------------------|
|------------------------------8-10---------------------15-13-12---------------------------------------|
|-----------------------7-9-10-----------------------------------14-12---------------------------------|
|----------------7-9-10------------------------------------------------15-14-12------------------------|
|---------7-8-10----------------------------------------------------------------15-14-12---------------|
|--7-8-10--------------------------------------------------------------------------------15-13-12-10-8-|

Copyright Loompy100 :D
Dodał: marxapril, 2018-08-26 22:10
Opracowania video z komentarzy

Dodaj komentarz ...i/lub link do filmiku video

Zaloguj się do serwisu
Ostatnie komentarze
1.
uniquetab
2010-08-18 01:09
polecam bardzo dobry tab w gpro oparty na oficjalnym teledysku http://www.sendspace.pl/file/39f33c1c777f7cf9cc8d9ae "iksy" nizsze to 3 prog wyzsze to 9 oraz intro do pocwiczenia w petli http://www.sendspace.pl/file/19c54320424d1c9379e2a10
Wszelkie materiały i wypowiedzi zamieszczone na www.chords.pl są własnością ich autorów.