Zacznij systematycznie uczyć się grać na gitarze razem ze stroną Moja nauka - będziesz miał/miała do niej dostęp po zalogowaniu się w serwisie

Nie ma ochoty - Lady Pank

Opracował -a: Georgowski,
Dodał -a: Georgowski,
Redaktor: irontooth,
Pochodzi z: http://www.chords.pl
Data publikacji: 2010-02-14 22:21
 
Moja nauka


Ups, problem :-/
Zaloguj się Mój śpiewnik


Nie ma ochoty
E tuning


  intro:
e|---------------------------------------------------------------|
H|-----------------------------5h6-6-6p5--5h6-6-6p5--6/8--8~~----|
G|--7h9-9-9-7---3h5-5-5-5-3----5h7-7-7p5--5h7-7-7p5--7/9--9~~----|
D|--7---7-7-7---3---3-3-3-3--------------------------------------|
A|---------------------------------------------------------------|
E|---------------------------------------------------------------|

  verse riff        verse chords         pre chorus
  E       F#7add11      E      F#7add11    Bsus2           C#sus2
|------------------|----0------0--------|-----------2-----------4---------------------|
|-----------0------|----0------0--------|---------0-----------------------------------|
|------1--3---3----|----1------3--------|----------------------6----------------------|
|----2----4-----4--|----2------4--------|--2/4--4--------4/6-6------------2-2b3-------|
|-2----------------|--------------------|------------------------------2/4-4---4-2-0--|
|-0----------------|--------------------|---------------------------------------------|

  chorus                                                               chorus 2 fill
|--------------------0---0-0---|  |--------------------------------|------22\\\-------|
|----------------3/5--3/5-5----|  |--------------------------------|------------------|
|------------------------------|  |----------------7-7--4-4--------|------------------|
|------------------------------|x3|----------------7-7--4-4--5-5---|------------------|
|--4-4/7--7-7------------------|  |--4-4/7--7-7----5-5--2-2--5-5---|------------------|
|--2-2/5--5-5------------------|  |--2-2/5--5-5--------------3-3---|------------------|


Solo nie wkleiłem ,bo jest niedokończone. Jak będzie zainteresowanie odnośnie solo, to pomyślimy ;].

Legenda:

h       hammer-on
p       pull-off
b       podciągnięcie (bend)
r       rebend
tr      tryl
H       flażolet naturalny
A.H.    flażolet wymuszony
  palm muting
/       slide w górę
\       slide w dół
x       tłumienie strun
()      martwa nota
~       ręczne wibrato lub niech trwa
///     whammy bar w górę
\\\     whammy bar w dół
///\\\  whammy bar vibrato

Dodaj komentarz ...i/lub link do filmiku video

Zaloguj się do serwisu
Wszelkie materiały i wypowiedzi zamieszczone na www.chords.pl są własnością ich autorów.