Zacznij systematycznie uczyć się grać na gitarze razem ze stroną Moja nauka - będziesz miał/miała do niej dostęp po zalogowaniu się w serwisie

Tańcz głupia tańcz (bas) - Lady Pank

Opracował -a: rolbromski,
Dodał -a: rolbromski,
Redaktor: SEBEK1304,
Pochodzi z: http://www.chords.pl
Data publikacji: 2012-05-17 17:33, Poprawiono 2012-05-21 08:03
 
Moja nauka


Ups, problem :-/
Zaloguj się Mój śpiewnik


Zwrotka:

|----------------------|
|----------------------|
|----------------------|  x8
|-7--5-3--3-5--5-5--3--|


Refren:

|----------------------|
|----------------------|
|-5-------5------------|
|---5-7-3---5-7--------|


Przejœcie:

|-------------------------------|
|-------------------------------|
|-5-------5-------5-------5-----|
|---5-7-5---5-7-5---5-7-5---5-7-|


Outro:

|--------------------------|
|--------------------------| x8
|-2---4-5-4-2------5---5---|
|-------------5-3----2---5-|

Dodaj komentarz ...i/lub link do filmiku video

Zaloguj się do serwisu
Ostatnie komentarze
1.
rolbromski
2012-05-21 00:36
pomyłkowo zamiast 7 wpisywałem 9 - także o ile jest możliwość prosiłbym o zamianę wszystkich 9 na7
Wszelkie materiały i wypowiedzi zamieszczone na www.chords.pl są własnością ich autorów.