Zacznij systematycznie uczyć się grać na gitarze razem ze stroną Moja nauka - będziesz miał/miała do niej dostęp po zalogowaniu się w serwisie

Nie omijaj mnie - Lady Pank

Opracował -a: michicybo,
Pochodzi z: http://gitara.org/
Data publikacji: 2004-09-25 23:39
 
Moja nauka


Ups, problem :-/
Zaloguj się Mój śpiewnik
Wstęp:

-7---------------7---------------------------------------
-7-------7-------7---------------------------------------
-9-----9---9-----9---------------------------------------
-9---------------9------9--------9--------9--------9-----
-7---7-------7---7--7-7---7--7-7---7--7-7---7--7-7---7---
---------------------------------------------------------

Zwrotka:
 E                             cis
-7-----------------------------4---------------------------
-7-----------------------------4---------------------------
-9-----------------------------6---------------------------
-9-----------------------------6---------------------------
-7-----------------------------4---------------------------
-----------------------------------------------------------
   Na pewno...                   Schowany...


 E                             cis
-7-----------------------------4---------------------------
-7-----------------------------4---------------------------
-9-----------------------------6---------------------------
-9-----------------------------6---------------------------
-7-----------------------------4---------------------------
-----------------------------------------------------------
   Prywatny...                   A za nim...


 A                H                      cis              H
-5----------------7----------------------4----------------2-
-5----------------7----------------------5----------------4-
-6----------------8----------------------6----------------4-
-7----------------9----------------------6----------------4-
-7----------------9----------------------4----------------2-
-5----------------7-----------------------------------------
  Po stu....                  Tam...


 A                H                   cis
-5---------------7--------------------4-----------------4---
-5---------------7--------------------5--------------4------
-6---------------8--------------------6------------6--------
-7---------------9--------------------6---------------------
-7---------------9--------------------4---------------------
-5---------------7------------------------------------------
  Po...                            Donikąd aż...


Gitara I
 E                                    cis
-7------------------------------------4---------------------------
-7------------------------------------4---------------------------
-9------------------------------------6---------------------------
-9------------------------------------6---------------------------
-7------------------------------------4---------------------------
------------------------------------------------------------------
  Pamiętam...                          Był ktoś...


Gitara II
------------------------------------7----------------------------12---
----------------------------------7---9----------------------------12-
----------------------------------------------------------------------
----------------------------------------------------------------------
----------------------------------------------------------------------
----------------------------------------------------------------------


Gitara I
 E                                   cis
-7----------------------------------4---------------------------
-7----------------------------------4---------------------------
-9----------------------------------6---------------------------
-9----------------------------------6---------------------------
-7----------------------------------4---------------------------
----------------------------------------------------------------
  Czekałem...                         Twój...


Gitara II
----------------------------------7-----------------------------9-7---
--------------------------------7---9-------------------------------9-
----------------------------------------------------------------------
----------------------------------------------------------------------
----------------------------------------------------------------------
----------------------------------------------------------------------


 A                  H                  cis       H
-5------------------7------------------4---------2--
-5------------------7------------------5---------4--
-6------------------8------------------6---------4--
-7------------------9------------------6---------4--
-7------------------9------------------4---------2--
-5------------------7-------------------------------
   Po...                       Kazał...


 A                H                 cis                    H
-5------------------7------------------------------------------
-5------------------7------------------------------------------
-6------------------8---------------6-6-----6--6-6-----6-6-4---
-7------------------9---------------6-6-----6--6-6-----6-6-4---
-7------------------9---------------4-4---2-4--4-4---2-4-4-2---
-5------------------7-------------------4----------4-----------
   W latach...                  Do nigdy...


Refren:
 A             E         H          A        E             H
----------------------------------------------------------------------
----------------------------------------------------------------------
-2-----------------------4--4--4/6--2----------------------4---4-4----
-2--2--------------------4--4--4/6--2--2-------------------4---4-4----
-0--0----------2----2----2--2--2/4--0--0-----2-2-----------2---2-2----
---------------0----0------------------------0-0-------------------4--
    Nie omijaj...                      Nie omijaj...


 A             E         H          A         E            H
--------------------------------------------------------------------
--------------------------------------------------------------------
-2-----------------------4--4--4/6--2----------------------4---4-4--
-2--2--------------------4--4--4/6--2--2-------------------4---4-4--
-0--0----------2----2----2--2--2/4--0--0------2----2-------2---2-2--
---------------0----0-------------------------0----0----------------
    Nie...                             Jestem...


Dalej się wzystko powtarza. Kiedy w solówce gra fortepian, to ja proponuję
zagrać coś ciekawego na gitarce elektrycznej. Nie rozpiszę solówki, bo co
mój koncert ją inaczej interpretuję. Powodzenia !!!


Zwrotka:

E
cis


Przejście:

A   H   cis
A   H   cis


Refren:

A  E
H

Dodaj komentarz ...i/lub link do filmiku video

Zaloguj się do serwisu
Wszelkie materiały i wypowiedzi zamieszczone na www.chords.pl są własnością ich autorów.