Zacznij systematycznie uczyć się grać na gitarze razem ze stroną Moja nauka - będziesz miał/miała do niej dostęp po zalogowaniu się w serwisie

Prawda i serce - Lady Pank

Opracował -a: michicybo,
Pochodzi z: http://gitara.org/
Data publikacji: 2004-10-22 11:37
 
Moja nauka


Ups, problem :-/
Zaloguj się Mój śpiewnik
wstęp
                                                                x2
---------------------------------------------------------------------------
---------------------------------------------------------------------------
---------------------------------------------------------------------------
------------2-----2-----------------0-----2--------------------------------
------------0-----0-----------------------0--------------------------------
--0--2--3------3-----------0--2--3-----3-----------------------------------

zwrotka
  G       A              G             A
--3----3------------------3--3---------------------------------------------
--3----3---2----2--2------3--3-----2------2--2-----------------------------
--0----0---2----2--2--2---0--0--x--2---x--2--2-----------------------------
--0----0---2----2--2--2---0--0--x--2---x--2--2-----------------------------
--2----2---0----0--0--0---2--2--x--0---x--0--0-----------------------------
--3----3------------------3--3---------------------------------------------

  G       A             G               D                                                                          x4
--3----3------------------3--3------2---2-2--------------------------------
--3----3---2----2--2------3--3------3---3-3--------------------------------
--0----0---2----2--2--2---0--0--x---2---2-2--------------------------------
--0----0---2----2--2--2---0--0--x---0---0-0--------------------------------
--2----2---0----0--0--0---2--2--x------------------------------------------
--3----3------------------3--3---------------------------------------------

Gitara 1
h                       G               A                   D
---------------------------------------------------------------------------
-3------------3---3---3---------3--3---5---------5------7-----------7---7--
-4---4--4--4--4---4---4---4--4--4--4---6---------6--6---7--7--7--7--7---7--
-4---4--4--4--4---4---5---5--5--5--5---7--7--7---7--7---7--7--7--7--7---7--
-2---2--2--2--2---2---5---5--5--5--5---7--7--7---7--7---5--5--5--5--5---5--
----------------------3---3--3--3--3---5--5--5---5--5----------------------
Gitara 2
---------------------------------------------------------------------sl--sl
--------sl-----sl-----------sl---sl----------sl---sl------------sl---\10-/-
------7-\-9---7-\-9--------7\9--7\9---------7\9--7\9----------7-\-9--------
---------------------------------------------------------------------------
---------------------------------------------------------------------------
---------------------------------------------------------------------------



G       A                 G         A
--3----3------------------3--3---------------------------------------------
--3----3---2----2--2------3--3-----2------2--2-----------------------------
--0----0---2----2--2--2---0--0--x--2---x--2--2-----------------------------
--0----0---2----2--2--2---0--0--x--2---x--2--2-----------------------------
--2----2---0----0--0--0---2--2--x--0---x--0--0-----------------------------
--3----3------------------3--3---------------------------------------------



Refren
  D         G          h         A                      x4
--3---3---3---3--3---------------------------------------------------------
--2---2---3---3--3----3---3---2---2--2-------------------------------------
--3---3---0---0--0----4---4---2---2--2-------------------------------------
--0---0---0---0--0----4---4---2---2--2-------------------------------------
----------2---2--2----2---2---0---0--0-------------------------------------
----------3---3--3---------------------------------------------------------


                                                                x2
---------------------------------------------------------------------------
---------------------------------------------------------------------------
---------------------------------------------------------------------------
------------2-----2-----------------0-----2--------------------------------
------------0-----0-----------------------0--------------------------------
--0--2--3------3-----------0--2--3-----3-----------------------------------

Przejście
                                                                        x2
--0-----0---0-------------0----0---0---0-----------------------------------
--1-----3---3---2---------1----1---3---3---2-------------------------------
--0-----0---0---2---------0----0---0---0---2-------------------------------
--2-----4---4---2---------2----2---4---4---2-------------------------------
--3-----5---5---0---------3----3---5---5---0-------------------------------
---------------------------------------------------------------------------

solo
Refren


Zakończenie (na funkcjach refrenu)
Gitara 2
---------------------------------------------------------------------------
---------------------------------------------------------------------------
--7---7-----7--7--6----7---7---7--9--11---11--9----------------------------
---------------------------------------------------------------------------
---------------------------------------------------------------------------
---------------------------------------------------------------------------

---------------------------------------sl----------------------------------
---------------------------------------\12---------------------------------
--7---7-----7--7--6----7---7---7--9-----------11---------------------------
---------------------------------------------------------------------------
---------------------------------------------------------------------------
---------------------------------------------------------------------------

Dodaj komentarz ...i/lub link do filmiku video

Zaloguj się do serwisu
Wszelkie materiały i wypowiedzi zamieszczone na www.chords.pl są własnością ich autorów.