Zacznij systematycznie uczyć się grać na gitarze razem ze stroną Moja nauka - będziesz miał/miała do niej dostęp po zalogowaniu się w serwisie

Mała Lady Punk - Lady Pank

Opracował -a: 120+120,
Pochodzi z: http://www.gitara.org/
Data publikacji: 2004-09-25 23:47
 
Moja nauka


Ups, problem :-/
Zaloguj się Mój śpiewnik
Wstęp:
E||---------------------------|------------------------|-----------------0-----|
H||------------------------7--|--5--4------------------|----2-------0-------0--|
G||---------------------4-----|--------4-----4----2----|-------2----6-------8--|
D||------------------6--------|-----------6--4----2----|------------7-------9--|
A||------------2--4-----------|--------------2----0----|------------7-------9--|
E||---0--2--4-----------------|------------------------|-----------------------|



E||----0-----0-------------||
H||-------0-----0----7-----||
G||-------8-----6----------||
D||-------9-----7----------|| całość x4
A||-------9-----7----------||
E||------------------------||

wstęp grają dwie gitary, ale ja rozpisałem tą ciekawszą

Zwrotka:
E||---------------------|-------------------|--------------------|
H||---------------------|-------------------|--------------------|
G||---------------------|-------------------|--------------------|
D||--6--6------------4--|----------------2--|--2--------------2--|
A||--4--4------------2--|----------------0--|--0-----------------|
E||---------------------|-------------------|--------------------|


E||---------------------||
H||---------------------||
G||---------------------||  Całość x4
D||---------------------||
A||------2----0----2----||
E||---------------------||

Refren:
E||-------0----------------|-----------------------||
H||-------0----------4--2--|-------2-----2----4----||
G||--1------------4-----2--|----2-----2--2/---4----|| x4
D||--2-------4----------2--|-----------------------||
A||------------------------|-----------------------||
E||------------------------|-----------------------||



Zwrotka:

cis cis   H   E E
cis H E H


Refren:

E  H  E   H H
Dodał: 120+120, 2019-05-18 21:57
Opracowania video z komentarzy

Dodaj komentarz ...i/lub link do filmiku video

Zaloguj się do serwisu
Ostatnie komentarze
1.
120+120
2013-01-19 03:30
http://www.youtube.com/watch?v=WX4Q4pnSOeo yes
2.
sc777ona
2012-11-27 17:38
Ja gram cis H A przejście cis H A H Refren: E H A H
3.
HeraMojaMiłość
2011-10-01 21:27
Chociaż w sumie to nie wiem. Może i tak jak jet pierwsze.
4.
HeraMojaMiłość
2011-10-01 21:26
E||---------------------|-------------------|-------------------- H||---------------------|-------------------|-------------------- G||---------------------|-------------------|-----------------13- D||--6--6------------4--|----------------2--|--2----------------- A||--4--4------------2--|----------------0--|--0----------------- E||---------------------|-------------------|-------------------- E||---------------------|| H||---------------------|| G||------10---8----10---|| Całość x4 D||---------------------|| A||---------------------|| E||---------------------|| Ja bym to tak zagrała.
5.
DarkenHue
2011-01-02 16:37
E||---------------------|-------------------|-------------------- H||---------------------|-------------------|-------------------- G||---------------------|-------------------|-----------------13- D||--6--6------------4--|----------------2--|--2----------------- A||--4--4------------2--|----------------0--|--0----------------- E||---------------------|-------------------|-------------------- E||---------------------|| H||---------------------|| G||------11---9----11---|| Całość x4 D||---------------------|| A||---------------------|| E||---------------------|| Proszę o skasowanie tamtego poprzedniego komentarza, gdyż się pomyliłem :)
6.
winozaur
2010-10-13 22:38
Ja to gram tak: cis H A + przejście między wersami cis H A E Refren: E H A
7.
Jaguar
2008-08-06 09:49
refren jet ok tylko nie pasuje tam E
8.
kuba_oleksy
2008-07-16 09:20
oprocz tych wczesniej wymienionych bledow jest ok to co rozpisal 86 blizniak jest dobre ale ta wersja michicybo jest prostsza
9.
86_blizniak
2008-06-24 20:56
zmieniając trochę rozpisanie można ten wstęp zagrać łatwiej (mniej ruszania ręką ;-) E||------------------------2--|--0---------------------| H||---------------------------|-----4------------------| G||------------------1--4-----|--------4--1--4----2----| D||---------------------------|--------------4----2----| A||------------2--4-----------|--------------2----0----| E||---0--2--4-----------------|------------------------|
10.
120+120
2005-08-10 21:21
no wlasnie... nie wiem jakim cudem to tak jest.... :/
Wszelkie materiały i wypowiedzi zamieszczone na www.chords.pl są własnością ich autorów.