Zacznij systematycznie uczyć się grać na gitarze razem ze stroną Moja nauka - będziesz miał/miała do niej dostęp po zalogowaniu się w serwisie

www.GOD.com - Lady Pank

Opracował -a: michicybo,
Pochodzi z: http://www.chords.pl
Data publikacji: 2004-09-22 22:46
 
Moja nauka


Ups, problem :-/
Zaloguj się Mój śpiewnik
Wstęp i zwrotka:

------------------------------------------------------
------------------------------------------------------
------------------------------------------------------
------------------------------------------------------
------4-------------------------4---------------------
--5-5---5-4-3-3-3---0--3-4--5-5---5-4-3-3-3---0--3-4--


Refren:

------------------------------------------------------------------
------------------------------------------------------------------
-----------------7-7-7-7-7-7-7-7----------------------------------
-5-5-5-5-5-5-5-5-7-7-7-7-7-7-7-7-7-7-7-7-7-7-7-7-9-9-9-9-9-9-9-9--
-5-5-5-5-5-5-5-5-5-5-5-5-5-5-5-5-7-7-7-7-7-7-7-7-9-9-9-9-9-9-9-9--
-3-3-3-3-3-3-3-3-----------------5-5-5-5-5-5-5-5-7-7-7-7-7-7-7-7--


(na koniec refrenu i piosenki akord h):

-7-7-7---7--7-7--7-7---
-7-7-7---7--7-7--7-7---
-7-7-7---7--7-7--7-7---
-9-9-9---9--9-9--9-9---
-9-9-9---9--9-9--9-9---
-7-7-7---7--7-7--7-7---



Zwrotka, refren, solówka (motyw ze zwrotki i ze wstępu), refren
i zakonczenie (podkład z refrenu i zakonczenie akordem h).


Zwrotka:

A A cis  G G


Refren:

G  D  A  h
Dodał: michicybo, 2012-10-26 14:08
Opracowania video z komentarzy

Dodaj komentarz ...i/lub link do filmiku video

Zaloguj się do serwisu
Ostatnie komentarze
1.
michicybo
2006-07-15 22:02
w refrenie D2 zamiast D
Wszelkie materiały i wypowiedzi zamieszczone na www.chords.pl są własnością ich autorów.