Zacznij systematycznie uczyć się grać na gitarze razem ze stroną Moja nauka - będziesz miał/miała do niej dostęp po zalogowaniu się w serwisie

Wielki supermarket - Lady Pank

Opracował -a: Georgowski,
Dodał -a: Georgowski,
Redaktor: Tomek Pietrzkowski,
Pochodzi z: http://www.chords.pl
Data publikacji: 2010-03-01 00:02
 
Moja nauka


Ups, problem :-/
Zaloguj się Mój śpiewnik
Wielki supermarket
E tuning


   verse  guitar 1
     A            A7+           F#add11            Aadd6
e||--0--0---0-0---0--0---|  ||----------------------------------------|  |
H||--2--2---2-2---2--2---|  ||--0-----0-----0------0---0---0------0---|  |
G||--2--2---2-2---1--1---|  ||--3---3---3-----3----6-----6------6-----|  |
D||--2--2---2-2---2--2---|4x||--4---------4--------7------------------|2x|
A||----------------------|  ||--4------------------7----------7-------|  |
E||----------------------|  ||----------------------------------------|  |


   Hadd2              Dadd2      Eadd2
|----------2-----------------------------|
|--------2---2--------5------5---7----7--|
|------4-------4------7--7-7-----9--9----|
|----4-----------4----7--7-------9-------|
|--2------------------5--5-------7-------|
|----------------------------------------|


   verse guitar 2        chorus guitar 1      chorus guitar 2
                           A     c#7   G
|---------------------|----5-----------3----|--------------------------------|
|---------------------|----5-----5-----3----|--------------------------------|
|---------------------|----6-----4-----4----|--------------------------------|
|-----------7-7-------|----7-----6-----5----|--------------------------------|
|-----4--7------7\----|----7-----4-----5----|----0--2---2--4--5---4--2--0----|
|---5-----------------|----5-----------3----|--3-----------------------------|
  <     P.M.     >

Legenda:

P.M.   palm muting
\      slide w dół

Dodaj komentarz ...i/lub link do filmiku video

Zaloguj się do serwisu
Wszelkie materiały i wypowiedzi zamieszczone na www.chords.pl są własnością ich autorów.