Zacznij systematycznie uczyć się grać na gitarze razem ze stroną Moja nauka - będziesz miał/miała do niej dostęp po zalogowaniu się w serwisie

Minus 10 w Rio (bas) - Lady Pank

Opracował -a: mklik,
Dodał -a: mklik,
Redaktor: Seba,
Pochodzi z: http://www.chords.pl/
Data publikacji: 2013-07-15 22:29
 
Moja nauka


Ups, problem :-/
Zaloguj się Mój śpiewnik


Minus 10 w Rio - tab na gitarę basową
Struny: E A D G (standard.)

*motyw powtarza się przez większą część utworu*
Zwrotka/Refren
|--------|
|--------|
|--------|
|-6\1-3--|


Solo
|-------------------|-----------------------|
|-0----3------------|-0----3------------3---|
|-----------1-1-1-3-|-----------1-1-1-3-----| x4
|-------------------|-----------------------|

Przejście
|----------|
|-0--------|
|--------1-| x3
|----1-1---|

|-------------|
|-0-----------|
|-------------| x1
|----1-1-3-3--|

Ostatni refren
|-------|-------|----------|
|-------|-------|----------|
|-------|-------|----------|
|-6-5-1-|-6-5-1-|-1--3-3-3-|
Dodał: kamil1999, 2015-04-29 22:21
Opracowania video z komentarzy

Dodaj komentarz ...i/lub link do filmiku video

Zaloguj się do serwisu
Ostatnie komentarze
1.
mkkobii
2013-10-29 17:57
dokładnie !!! bas w internecie a przede wszystkim taby polskich zespołów nie istnieją, trzeba coś z tym zrobić :) pozdrawiam
Wszelkie materiały i wypowiedzi zamieszczone na www.chords.pl są własnością ich autorów.