Zacznij systematycznie uczyć się grać na gitarze razem ze stroną Moja nauka - będziesz miał/miała do niej dostęp po zalogowaniu się w serwisie

Na co komu dziś (solo) - Lady Pank

Dodał -a: Paweł B.,
Redaktor: Tomek Pietrzkowski,
Data publikacji: 2009-04-18 12:11, Poprawiono 2009-04-18 12:12
 
Moja nauka


Ups, problem :-/
Zaloguj się Mój śpiewnik
E|-------------5-----------------------------
B|-----10-8b10---8-5-------------------------
G|-7/9---------------7b9r7p5-7---5-----5b6---
D|-----------------------------7---7-7-------
A|-------------------------------------------
E|-------------------------------------------

E|------8-10-10b12-12r10p8-10p8----8----8----8b10-
B|-8/10-------------------------10---10---10------
G|------------------------------------------------
D|------------------------------------------------
A|------------------------------------------------
E|------------------------------------------------

E|-15b17-15-------13-14-15-13----------------------------
B|----------15b17-------------15b17r15p13----15----13----
G|----------------------------------------14----14----14-
D|-------------------------------------------------------
A|-------------------------------------------------------
E|-------------------------------------------------------

E|------5---5-7-5---5-----------------------------------------
B|-8b10---8-------8---8p5-------------------------------------
G|------------------------7b9r7p5-7p5-------------------------
D|------------------------------------7p5---------------------
A|----------------------------------------7p5\3p0---0-3/5-3b4-
E|------------------------------------------------3-----------


opracowane przez uprzejmego użytkownika youtube - Bjnpol
pod tym adresem http://www.youtube.com/user/Bjnpol możecie obejrzeć przykład

Dodaj komentarz ...i/lub link do filmiku video

Zaloguj się do serwisu
Ostatnie komentarze
1.
mrboryzpl
2014-02-09 00:13
Jeżeli mógłbym zapytać, co oznacza ,,b'' , ,,r'' , ,,p''
2.
hipis1992
2010-08-19 20:21
Źle jest to rozpisane...;/
Wszelkie materiały i wypowiedzi zamieszczone na www.chords.pl są własnością ich autorów.