Zacznij systematycznie uczyć się grać na gitarze razem ze stroną Moja nauka - będziesz miał/miała do niej dostęp po zalogowaniu się w serwisie

Fabryka małp (taby) - Lady Pank

Dodał -a: nex,
Redaktor: Tomek Pietrzkowski,
Data publikacji: 2010-03-12 11:16
 
Moja nauka


Ups, problem :-/
Zaloguj się Mój śpiewnik
Wstęp                                           x4
----------0-------------4-----0--------------------------------------------
--------0------------2-----0-----------------------------------------------
------6------------2-------------------------------------------------------
----7------------4---------------------------------------------------------
--7------------------------------------------------------------------------
---------------------------------------------------------------------------

zwrotka
   E                H       gis      A              H           x4
---------------------------------------------------------------------------
----------------4---4--4----4----------5---5--------7---7------------------
------1--1--x---4---4--4----4---4--4---6---6--6-----8---8------------------
---2--2--2--x---4---4--4--x-6---6--6---7---7--7--x--9---9------------------
---2--2--2--x---2---2--2--x-6---6--6---7---7--7--x--9---9------------------
---0--0---------------------4---4--4---5---5--5--x--7---7------------------

refren
   E                     H                    gis            A           H
---------------------------------------------------------------------------
---------------------------------------------------------------------------
---------------------------4--4--4--4--4-4-4-4--------------------------sl-
---2--2--2--2--2--2--2--2--4--4--4--4--4-4-4-4--6-6-6-6-6-6-6-6--5-7---7\9-
---2--2--2--2--2--2--2--2--2--2--2--2--2-2-2-2--6-6-6-6-6-6-6-6--7-7-x-7\9-
---0--0--0--0--0--0--0--0-----------------------4-4-4-4-4-4-4-4--5-5-x-5\7-


riff grany tylko przez gitarę
---------------------------------------------------------------------------
--9---------9-----9--------------------5-x-5--4--5---4--5---5--4--5--------
--9--x-x-x--9--8--9---9-x-x--9-x-x--9--6-x-6--4--6---4--6---6--4--6--------
--9--x-x-x--9--7--9---9-x-x--9-x-x--9--6-x-6--4--6---4--6---6--4--6--------
--7--x-x-x--7--7--7---7-x-x--7-x-x--7--4-x-4--4--4---4--4---4--4--4--------
---------------------------------------------------------------------------


PS wstęp poprawiony wg uwagi Smolarek30
Dodał: michicybo, 2013-03-06 01:13
Opracowania video z komentarzy

Dodaj komentarz ...i/lub link do filmiku video

Zaloguj się do serwisu
Ostatnie komentarze
1.
tomkez
2015-09-09 21:18
----------0--------------- --------0-----------9----- ------6-----------6---9--- ----7-----------7--------- --0-----------9----------- -------------------------- ------------------------ ------------------------ ------------------------ ------------------------ --------------4--------- -2--2-2-2--2----5------- A nie ma za co ;-)
2.
Niuncio95
2015-09-07 18:58
Solo natomiast jest na strunie G -13^^^^-13--11--9--11--9--
3.
Niuncio95
2015-09-07 18:53
Niestety, ale Smolarek30 twoje intro również się nie zgadza:) E---------0-----------4------- H-------0----------0------5--- G-----6----------6------6----- D---7---------7--------------- A--7-------------------------- E----------------------------- Zwrotka jest grana wyżej na Barrach:)
4.
michicybo
2013-03-06 01:13
http://www.youtube.com/watch?v=Lj-yxioMKtY
5.
kotek71
2011-05-15 09:05
smolarek 30 ma rację.
6.
smolarek30
2010-03-23 22:04
Wydaje mi się że intro leci trochę inaczej: E---------0-----------4-----0- H-------0----------2-----0---- G-----6----------2------------ D---7---------4--------------- A--7--------------------------- E------------------------------- Poza tym bardzo dobre opracowanie:)
Wszelkie materiały i wypowiedzi zamieszczone na www.chords.pl są własnością ich autorów.