Zacznij systematycznie uczyć się grać na gitarze razem ze stroną Moja nauka - będziesz miał/miała do niej dostęp po zalogowaniu się w serwisie

Zamki na piasku (bas) - Lady Pank

Opracował -a: mklik,
Dodał -a: mklik,
Redaktor: SEBEK1304,
Pochodzi z: http://www.chords.pl/
Data publikacji: 2013-07-15 22:29
 
Moja nauka


Ups, problem :-/
Zaloguj się Mój śpiewnik
Zamki na piasku - tab na gitarę basową
Struny: E1 A1 D G (standardowo)

*bas zaczyna od II zwrotki
II Zwrotka/Refren
|----------------|
|----------------|
|----------------|
|-7\3/5--2--3----|

III Zwrotka
|-----------------------|
|-99--------------------|
|----99-----------------|
|-------77--55--22--33--|

Przejście
|-------------|----------|
|-------------|----------|
|-------2-----|-2-5-4-0--| (x4)
|-0-2-3---2-3-|----------|

Ostatni refren
|-------------------|------------------|
|-------------------|------------------|
|-7777-3333-5555...-|-2222...-3333...--|
|-------------------|------------------|

Ostatnie powtórzenie
|-------------------|--------------|
|-------------------|--------------|
|-7777-3333-5555...-|-2222...-3--3-|
|-------------------|--------------|

Dodaj komentarz ...i/lub link do filmiku video

Zaloguj się do serwisu
Wszelkie materiały i wypowiedzi zamieszczone na www.chords.pl są własnością ich autorów.