Zacznij systematycznie uczyć się grać na gitarze razem ze stroną Moja nauka - będziesz miał/miała do niej dostęp po zalogowaniu się w serwisie

Samotne noce - Lady Pank

Dodał -a: redczopol,
Redaktor: Tomek Pietrzkowski,
Data publikacji: 2018-12-10 21:16
 
Moja nauka


Ups, problem :-/
Zaloguj się Mój śpiewnik


Intro:

a    F    G    e (G)

|---------------------------------------|---------------------------------------|
|---------------------------------------|---------------------------------------|
|-----4-5-------4h5-4~-----4h5-4~-------|-----4-5-------4h5-4~-----4h5-4~-------|
|---7---------7----------7--------7-5-7-|---7---------7----------7--------7-5-7-|
|-7-------------------------------------|-7-------------------------------------|
|---------------------------------------|---------------------------------------|


Zwrotka:

a    F    G    e


Bridge:

|-3--------3-------3-------------|-3--------3-------3-------------|
|-1--------1-------0-------------|-1--------1-------0-------------|
|-2--------2-------0-------------|-2--------2-------0-------------|
|-2--------3-------0-------------|-2--------3-------0-------------|
|-0----------------x-------------|-0----------------x-------------|
|------------------3-------------|------------------3-------------|
|                                |                                |
|                                |                                |
|------------------3-------------|------------------3-------------|
|---0-1--------------0-1---------|---0-1--------------0-1---------|
|-2-----2----------------2-------|-2-----2------------------------|
|--------------------------------|--------------------------------|
|--------------------------------|--------------------------------|
|--------------------------------|--------------------------------|


Końcówka:

|-3--------3-------3-------------|-3--------3---------------------|
|-1--------1-------0---------0---|-1--------1-------0-------------|
|-2--------2-------0-----0---0---|-2--------2-------0-------------|
|-2--------3-------0-----2---0---|-2--------3-------2-------------|
|-0----------------x-----2---x---|-0----------------2-------------|
|------------------3-----0---3---|------------------0-------------|
|                                |                                |
|                                |                                |
|------------------3-------------|--------------------------------|
|---0-1--------------0-1---------|---0-1-----0-1------------------|
|-2-----2----------------2-------|-2-----2------------------------|
|--------------------------------|--------------------------------|
|--------------------------------|--------------------------------|
|--------------------------------|--------------------------------|


Poprawki mile widziane :)
Dodał: redczopol, 2018-12-10 21:16
Opracowania video z komentarzy

Dodaj komentarz ...i/lub link do filmiku video

Zaloguj się do serwisu
Wszelkie materiały i wypowiedzi zamieszczone na www.chords.pl są własnością ich autorów.