Zacznij systematycznie uczyć się grać na gitarze razem ze stroną Moja nauka - będziesz miał/miała do niej dostęp po zalogowaniu się w serwisie

Zamki na piasku (tab) - Lady Pank

Opracował -a: Jaskier94,
Dodał -a: Jaskier94,
Redaktor: Seba,
Pochodzi z: http://www.chords.pl
Data publikacji: 2011-09-04 17:47
 
Moja nauka


Ups, problem :-/
Zaloguj się Mój śpiewnik
Pre-intro (z koncertowej)

----------------------------|
----------------------------|
----------------------------|
-------------------------7--|
-9-9--9-9-9-9--9-9--7-7--5--|
-7-7--7-7-7-7--7-7--5-5-----|


----------------------|
----------------------|
--------------------7-|
--------------9-7-7-7-|
-9-9--9-9-9-9----9----|
-7-7--7-7-7-7---------|

----------------------|
----------------------|
------------6---------|
---9---5---7----------|
--9---5---7-------9-9-|
-7---3---5--------7-7-|

Zwrotka:

Można też grać całymi akordami
--------------------------------------------------|
--------------------------------------------------|
--------------------------------------------------|
--------------------------------------------------|
-----9------5------7----7------4----4------5---5--|
--7-7-7--3-3-3--5-5-5--5-5--2-2-2--2-2--3-3-3-3-3-|


Przejście

--------------0----------|
-------------0-----------|
------------2------------|
-------------------------|
----0--2---------2-5-4-0-|
-2-3----2-3--------------|


SOLO

(bardzo szybko i długo)
-------------------------------------------------|
-12-12-12-12-12-12-12-12-12-12-12-12-12-12-12-12-|
-------------------------------------------------|
-------------------------------------------------|
-------------------------------------------------|
-------------------------------------------------|


-------------------------------------------------|
-12-13-12---------12-10b12-12-10---12sl10--------|
---------12---------------------10--------10b12--|
-----------14-14---------------------------------|
-------------------------------------------------|
-------------------------------------------------|


Opracował:

Łukasz Rosa
Dodał: wojtek_n, 2015-05-01 22:57
Opracowania video z komentarzy

Dodaj komentarz ...i/lub link do filmiku video

Zaloguj się do serwisu
Ostatnie komentarze
1.
abukz
2012-08-28 16:12
http://www.songsterr.com/a/wsa/lady-pank-zamki-na-piasku-guitar-tab-s41207t4
Wszelkie materiały i wypowiedzi zamieszczone na www.chords.pl są własnością ich autorów.