Zacznij systematycznie uczyć się grać na gitarze razem ze stroną Moja nauka - będziesz miał/miała do niej dostęp po zalogowaniu się w serwisie

Byś imię miał (tab) - Lady Pank

Opracował -a: Jaskier94,
Dodał -a: Jaskier94,
Redaktor: Seba,
Pochodzi z: http://www.chords.pl
Data publikacji: 2011-09-04 09:02
 
Moja nauka


Ups, problem :-/
Zaloguj się Mój śpiewnik
Intro

   H2        D2
-2-2-2-2-----------|
-2-2-2-2---3-3-3-3-|
-4-4-4-4---2-2-2-2-|
-4-4-4-4-----------|
-2-2-2-2-----------|
-2-2-2-2-----------|

Zagrywka II gitary (z kaczką)

G   h    A
--------------|
--------------|
--7--7--7--7--|
---9--9--9--7-|
--------------|
--------------|

Refren

   G      h     D     A
-------------------------|
-------------------------|
-------------------------|
---------4-4-7-7-7-7-----|
-5-5-5-5-2-2-5-5-5-5-7-7-|
-3-3-3-3-------------5-5-|


Solo opracuję na życzenie
gg:7977913

Opracował:

Łukasz Rosa

Dodaj komentarz ...i/lub link do filmiku video

Zaloguj się do serwisu
Wszelkie materiały i wypowiedzi zamieszczone na www.chords.pl są własnością ich autorów.