Zacznij systematycznie uczyć się grać na gitarze razem ze stroną Moja nauka - będziesz miał/miała do niej dostęp po zalogowaniu się w serwisie

Pierwsza linia - Lady Pank

Opracował -a: michicybo,
Pochodzi z: http://gitara.org/
Data publikacji: 2004-10-11 23:32
 
Moja nauka


Ups, problem :-/
Zaloguj się Mój śpiewnik


Wstęp
---------------------------------------------------------------------------
-----9--7--9------------6--4--6--------2------------2------4---------------
-----9--8--9------------6--5--6-----2--2--2-h----2--2----4-4----sl--sl--sl-
--9--9--7--9--9---6--6--6--4--6-6---2--2--2-\-4--4--2-2--4-4--4-\6-4\6-4\6-
--7-----------7---4--4----------4---0-----0------0--0-0--2----2------------
---------------------------------------------------------------------------

---------------------------------------------------------------------------
-----9--7--9------------6--4--6--------2------------2------4---------------
-----9--8--9------------6--5--6-----2--2--2-h----2--2----4-4----sl--sl--sl-
--9--9--7--9--9---6--6--6--4--6-6---2--2--2-\-4--4--2-2--4-4--4-\6-4\6-4\6-
--7-----------7---4--4----------4---0-----0------0--0-0--2----2------------
---------------------------------------------------------------------------

Zwrotka                                                       x4
---------------------------------------------------------------------------
---------------------------------------------------------------------------
---------------------------------------------------------------------------
---------------------------------------------------------------------------
--11--11-11-11-11-11--9-9-9-9-9-9-9--7-7-7-7-7-7-7-7--9-9-9-9-9-9-9-9-9----
--9---9--9--9--9--9---7-7-7-7-7-7-7--5-5-5-5-5-5-5-5--7-7-7-7-7-7-7-7-7----
gitara 2
---------------------------------------------------------------------------
--------------------------------------------------------7------------------
----------------------------------------------------------9-8-----9--9-8---
--------------------------------------------------------------9--9-------9-
---------------------------------------------------------------------------
---------------------------------------------------------------------------


Przejście przed refrenem
  E                       H       cis           A                 x2
---------------------------------------------------------------------------
-----9--9----9--9-----7--7-----7--7------5-5------5-5-----5-5------7--7----
-----9--9----9--9-----8--8-----8--8------6-6------6-6-----6-6------8--8----
--9--9--9----9--9--9--9--9-----9--9---6--6-6-6-6--6-6-----7-7------9--9----
--7--7-----7-------9--9----9-9----9---4------4-4-------7--7-7--9-9-9--9----
-------------------7-------7-7-------------------------5-------7-7---------


Refren
---------------------------------------------------------------------------
-----9--7--9------------6--4--6--------2------------2------4---------------
-----9--8--9------------6--5--6-----2--2--2-h----2--2----4-4----sl--sl--sl-
--9--9--7--9--9---6--6--6--4--6-6---2--2--2-\-4--4--2-2--4-4--4-\6-4\6-4\6-
--7-----------7---4--4----------4---0-----0------0--0-0--2----2------------
---------------------------------------------------------------------------

---------------------------------------------------------------------------
-----9--7--9------------6--4--6--------2------------2------4---------------
-----9--8--9------------6--5--6-----2--2--2-h----2--2----4-4----sl--sl--sl-
--9--9--7--9--9---6--6--6--4--6-6---2--2--2-\-4--4--2-2--4-4--4-\6-4\6-4\6-
--7-----------7---4--4----------4---0-----0------0--0-0--2----2------------
---------------------------------------------------------------------------


Zwrotka:

cis  H  A  H
cis  H  A  H
cis  H  A  H
cis  H  A  H
E  H   cis     H
E  H   cis     H


Refren:

E   cis   A   H
E   cis   A   H

Dodaj komentarz ...i/lub link do filmiku video

Zaloguj się do serwisu
Wszelkie materiały i wypowiedzi zamieszczone na www.chords.pl są własnością ich autorów.