Zacznij systematycznie uczyć się grać na gitarze razem ze stroną Moja nauka - będziesz miał/miała do niej dostęp po zalogowaniu się w serwisie

Rysunkowa postać - Lady Pank

Opracował -a: michicybo,
Pochodzi z: http://gitara.org/
Data publikacji: 2004-10-22 11:28
 
Moja nauka


Ups, problem :-/
Zaloguj się Mój śpiewnik


Wstęp
                                                                        X2
---------------------------------------------------------------------------
---------------------------------------------------------------------------
---------------------------------------------------------------------------
--7--7---2--2--x---------4--4--2----7--7---2--2----------------------------
--5--5---0--0-----5--5---2--2--0----5--5---0--0--5---5--5--5--5--5--5--5---
------------------3--3---------------------------3---3--3--3--3--3--3--3---


-------------------------7--5----------------------------------------------
-------------------------------5-------------------------------------------
--7--7--7---6--6---4--4--------------7--7--7---6--6---5--------------------
---------------------------------------------------------------------------
---------------------------------------------------------------------------
---------------------------------------------------------------------------

Zwrotka
D               A                       h                       G
---------------------------------------------------------------------------
---------------------------------------------------------------------------
---------------------------------------------------------------------------
-7--7--7--7--7--7--2--2--2--2--2--2--4--4--4--4--4--4----------------------
-5--5--5--5--5--5--0--0--0--0--0--0--2--2--2--2--2--2--5--5--5--5--5--5----
-------------------------------------------------------3--3--3--3--3--3----

Refren
D               A                       h                       G
---------------------------------------------------------------------------
---------------------------------------------------------------------------
---------------------------------------------------------------------------
-----7--7----7---------2--2----2-----------4--4----4--sl--------sl---------
-----5--5----5---------0--0----0-----------2--2----2--\-9-7------\9-7------
------------------------------------------------------------10-7------10-7-


Końcówka
D          G                      D        G
-2-----------0-------------------------2----------0------------------------
---3-----------2-------------------------3-----------2---------------------
------2----0-------------------------------2----0--------------------------
---------------------------------------------------------------------------
---------------------------------------------------------------------------
---------------------------------------------------------------------------
                Czy to tak ma pozostać                  Wciąż rysunkowa postać



Zwrotka:

D  A
h  G


Refren:

D  A  h    h A
D  A  h    h A
D  A  h    h A
D  A  h  G
D


Zakończenie:

D  G

Dodaj komentarz ...i/lub link do filmiku video

Zaloguj się do serwisu
Wszelkie materiały i wypowiedzi zamieszczone na www.chords.pl są własnością ich autorów.