Zacznij systematycznie uczyć się grać na gitarze razem ze stroną Moja nauka - będziesz miał/miała do niej dostęp po zalogowaniu się w serwisie

Hrabia - Lady Pank

Opracował -a: michicybo,
Pochodzi z: http://gitara.org/
Data publikacji: 2004-09-25 23:30
 
Moja nauka


Ups, problem :-/
Zaloguj się Mój śpiewnik
Wstęp:

      G
------3-3--3---3-3--3---3-3--3---3~--
------3-3--3---3-3--3---3-3--3---3~--
------4-4--4---4-4--4---4-4--4---4~--
------5-5--5---5-5--5---5-5--5---5~--
------5-5--5---5-5--5---5-5--5---5~--
-3-3--3-3--3---3-3--3---3-3--3---3~--

Wstęp i zwrotka (refren leci na samych riffach bez całego G):

 h              D                A              G
-----------------------------------------------------3-3--3--
-----------------------------------------------------3-3--3--
-----------------------------------------------------4-4--4--
-4-4-4-4-4-4-4-4-7-7-7-7-7-7-7-7-2-2-2-2-2-2-2-2-----5-5--5--
-2-2-2-2-2-2-2-2-5-5-5-5-5-5-5-5-0-0-0-0-0-0-0-0-5-5-5-5--5--
-------------------------------------------------3-3-3-3--3--

Dodaj komentarz ...i/lub link do filmiku video

Zaloguj się do serwisu
Wszelkie materiały i wypowiedzi zamieszczone na www.chords.pl są własnością ich autorów.