Zacznij systematycznie uczyć się grać na gitarze razem ze stroną Moja nauka - będziesz miał/miała do niej dostęp po zalogowaniu się w serwisie

Mniej niż zero (Bas) - Lady Pank

Opracował -a: rolbromski,
Dodał -a: rolbromski,
Redaktor: SEBEK1304,
Pochodzi z: http://www.chords.pl
Data publikacji: 2011-07-29 15:53
 
Moja nauka


Ups, problem :-/
Zaloguj się Mój śpiewnik
Lady Pank - Mniej niż zero (Bas tab)

Zwrotka: e G D
-------------------------------------------
-------------------------------------------
-------------------------------------------
-------------------------------------------
-7-7-----------------5-5-----5-5-----5-----
------0-0-3-3-5-7--------------------------

Zwrotka (czwarty raz)
-------------------------------------------
-------------------------------------------
-------------------------------------------
-------------------------------------------
-7-7-----------------5-5-----5-5--6--5-----
------0-0-3-3-5-7--------------------------

Refren: C D
-------------------------------------------
-------------------------------------------
-------------------------------------------
---2-2-5-5-----------4-4-6-----------------   x2
-3----------3-3----5-----------------------
-------------------------------------------
Dodał: rolbromski, 2011-07-29 15:53
Opracowania video z komentarzy

Dodaj komentarz ...i/lub link do filmiku video

Zaloguj się do serwisu
Ostatnie komentarze
1.
Gen_Lee
2013-01-22 15:45
Wydaje mi się, że ostatni dźwięk w momencie grania D w refrenie to nie 6 próg tylko 7
Wszelkie materiały i wypowiedzi zamieszczone na www.chords.pl są własnością ich autorów.