Zacznij systematycznie uczyć się grać na gitarze razem ze stroną Moja nauka - będziesz miał/miała do niej dostęp po zalogowaniu się w serwisie

Swojski Brodłej - Lady Pank

Opracował -a: michicybo,
Redaktor: Tomek Pietrzkowski,
Pochodzi z: http://www.chords.pl
Data publikacji: 2006-07-22 09:57
 
Moja nauka


Ups, problem :-/
Zaloguj się Mój śpiewnik


Bass (wstęp):

-----------------------------------------
-----------------------------------------
-3--6-5-3------------0--3-2-0--0--3-2-0--
-----------3--6-5-3----------------------


Wstęp:

---------------------------
----8----------------------
-9----7-7------9-----------
----------10------9-9-7----
---------------------------
---------------------------


Edmund Stasiak (podczas Sopotu '85):

-----15-----------------------------15--------
-17-----15-15-13--17-------------17----15-13--
----------------------16-16-14----------------
----------------------------------------------
----------------------------------------------
----------------------------------------------


Zwrotka:

C2  G  a2


Refren:

F   a
F   a
F   a
G  F  a  G G    2x
Dodał: michicybo, 2013-01-08 15:54
Opracowania video z komentarzy

Dodaj komentarz ...i/lub link do filmiku video

Zaloguj się do serwisu
Wszelkie materiały i wypowiedzi zamieszczone na www.chords.pl są własnością ich autorów.