Zacznij systematycznie uczyć się grać na gitarze razem ze stroną Moja nauka - będziesz miał/miała do niej dostęp po zalogowaniu się w serwisie

Nie chcę litości - Lady Pank

Opracował -a: michicybo,
Pochodzi z: http://gitara.org/
Data publikacji: 2004-09-25 23:30
 
Moja nauka


Ups, problem :-/
Zaloguj się Mój śpiewnik
wstep
--3------------------------------------------------------------------------
--3---3h5p3------------7--------------1----1------1---1----1----1-----1----
--4---4------4---------7--7h9p7-------2----2p0----0---0----2----2p0---2----
--5---5------5-----9---9---------9----3----3------3---3----3----3-----3----
--5----------------9------------------3----3------3---3----3----3-----3----
--3------------------------------------------------------------------------

--3------------------------------------------------------------------------
--3---3h5p3------------7--------------1----1------1---1----1---------------
--4---4------4---------7--7h9p7-------2----2p0----0---0----2---------------
--5---5------5-----9---9---------9----3----3------3---3----3---------------
--5----------------9------------------3----3------3---3----3---------------
--3------------------------------------------------------------------------
                                                          tu wchodzi perkusja

zwrotka
                                                                        x3
--3------------------------------------------------------------------------
--3---3h5p3------------7--------------1----1------1---1----1----1-----1----
--4---4------4---------7--7h9p7-------2----2p0----0---0----2----2p0---2----
--5---5------5-----9---9---------9----3----3------3---3----3----3-----3----
--5----------------9------------------3----3------3---3----3----3-----3----
--3------------------------------------------------------------------------

Za 4 razem gramy :
--3------------------------------------------------------------------------
--3---3h5p3------------7----------------5-----5----------------------------
--4---4------4---------7--7h9p7---------6-----6----------------------------
--5---5------5-----9---9---------9------7-----7----------------------------
--5----------------9--------------------7-----7-------------5---5---7---7--
--3-------------------------------------5-----5-----7---7------------------

Refren   x4
-----------------------3------3---3---3---
--7-----7---7---7------3------3---3---3---
--7-----7---7---7------4------4---4---4---
--7-----7---7---7------5------5---5---5---
--5-----5---5---5------5------5---5---5---
-----------------------3------3---3---3---

----7-----7-------5-----------------------------
----7-----7-------5-----------------------------
----7-----7-------6-----------------------------
----9-----9-------7-----------------------------
----9-----9-------7-------------5---5----7---7--
----7-----7-------5-----7---7-------------------


za ostatnim razem gramy zatrzymanie
-----------------------3------3---3---3---
--7-----7---7---7------3------3---3---3---
--7-----7---7---7------4------4---4---4---
--7-----7---7---7------5------5---5---5---
--5-----5---5---5------5------5---5---5---
-----------------------3------3---3---3---

----7-----7-------5-------------------------------3--
----7-----7-------5-------------------------------3--
----7-----7-------6-------------------------------5--
----9-----9-------7-------------------------------5--
----9-----9-------7-------------5---5----7---7----3--
----7-----7-------5-----7---7------------------------

Po refrenie grana jest solowka na funkcjach zwrotki.
Na plycie Janek gra ja szklana rurka, natomiast na koncertach wykonuje ja
na gitarze przesterowanej bez slidu.

Solo - wersja koncertowa
-----------------------------------------------------------------
-------------------------10--------------------------------------
------7--7--9---------------9------------7--7--9--------------
--/9------------9---7----------7-----/9------------9----7--------
-----------------------------------------------------------------
-----------------------------------------------------------------

Potem zwrotka, refren

Po drugim refrenie grana jest solowka na skrzypcach.
Na koncercie Janek gral ja na gitarze z przesterem.

Solo
     G              A           h        C
----------------------------------------------------------
----------------------------------------------------------
----------------------------------------------------------
-----------------------------------4---5---4--------------
------------2---5---4-----/7----5---------------5---7\----
--------3-------------------------------------------------


Zwrotka:

G  h  F
G  h  F
G  h  F
G  h  A


Refren:

D  G  h  A

Dodaj komentarz ...i/lub link do filmiku video

Zaloguj się do serwisu
Wszelkie materiały i wypowiedzi zamieszczone na www.chords.pl są własnością ich autorów.