Zacznij systematycznie uczyć się grać na gitarze razem ze stroną Moja nauka - będziesz miał/miała do niej dostęp po zalogowaniu się w serwisie

Pokręciło mi się w głowie - Lady Pank

Opracował -a: michicybo,
Pochodzi z: http://gitara.org/
Data publikacji: 2004-10-22 11:35
 
Moja nauka


Ups, problem :-/
Zaloguj się Mój śpiewnik


Wstęp i zwrotka

--------0-----------0-----------0-----------0-----------------------------
------0-----------0-----------0-----------0-------------------------------
----5-----------4-----------7-----------5---------------------------------
--7-----------5-----------9-----------7-----------------------------------
--------------------------------------------------------------------------
--------------------------------------------------------------------------

--------0-----------0-----------0-----------0-----------------------------
------0-----------0-----------0-----------0-------------------------------
----5-----------4-----------7-----------5---------------------------------
--7-----------5-----------9-----------7-----------------------------------
--------------------------------------------------------------------------
--------------------------------------------------------------------------

Refren

--------------------------------------------------------------------------
--8--8---10--10--10--10--10---8----8-----8--8---10--10--10--10---8--------
--7--7---9---9---9---9---9----7--x-7-x---7--7---9---9---9---9----7--------
--5--5---7---7---7---7---7----5--x-------5--5---7---7---7---7----5--------
--------------------------------------------------------------------------
--------------------------------------------------------------------------

--------------------------------------------------------------------------
--8--8---10--10--10--10--10---8----8-----8--8---10--10--10--10---8--------
--7--7---9---9---9---9---9----7--x-7-x---7--7---9---9---9---9----7--------
--5--5---7---7---7---7---7----5--x-------5--5---7---7---7---7----5--------
--------------------------------------------------------------------------
--------------------------------------------------------------------------



--------0-----------0-----------0-----------0-----------------------------
------0-----------0-----------0-----------0-------------------------------
----5-----------4-----------7-----------5---------------------------------
--7-----------5-----------9-----------7-----------------------------------
--------------------------------------------------------------------------
--------------------------------------------------------------------------



Zwrotka:

Amadd9  Em  G6  Amadd9


Refren:

G5 A5 G5
G5 A5 G5
G5 A5 G5
G5 A5 G5
Dodał: michicybo, 2012-11-03 19:48
Opracowania video z komentarzy

Dodaj komentarz ...i/lub link do filmiku video

Zaloguj się do serwisu
Wszelkie materiały i wypowiedzi zamieszczone na www.chords.pl są własnością ich autorów.