Zacznij systematycznie uczyć się grać na gitarze razem ze stroną Moja nauka - będziesz miał/miała do niej dostęp po zalogowaniu się w serwisie

Wspinaczka, czyli historia pewnej rewolucji - Lady Pank

Opracował -a: aarreek,
Redaktor: Tomek Pietrzkowski,
Pochodzi z: http://www.chords.pl
Data publikacji: 2007-06-02 00:02
 
Moja nauka


Ups, problem :-/
Zaloguj się Mój śpiewnik


wstęp

E-------------------
H--------8--7-------
G------9------7-----     x4
D----9----------7---
A-------------------
E-------------------

zwrotka

E-----------------------------------------------2---
H--------8------------5------------7----------------
G------9------------5------------7------------4-----      x4
D----9------------5------------7------------4-------
A---------------------------------------------------
E---------------------------------------------------

refren

E---------------------------------------------------
H---------------------------------------------------
G---------------------------------------------------      x2
D----2---2-4-5--------------0---0-2-4---------------
A--------------3----------------------2-------------
E---------------------------------------------------

akordy:

wstęp

 e D

cała piosenka

 e C D h
Dodał: michicybo, 2018-03-11 11:29
Opracowania video z komentarzy

Dodaj komentarz ...i/lub link do filmiku video

Zaloguj się do serwisu
Ostatnie komentarze
1.
michicybo
2018-03-11 11:29
https://youtu.be/ndkguwglq_4
2.
milenak
2018-03-10 18:58
Można prosić o rozpisane solo :)
3.
michicybo
2007-12-30 21:19
Ja w refrenie zamiast h preferuję H4
4.
michicybo
2007-12-25 18:00
Refren ciut inaczej na koncu: e C D2 H4
Wszelkie materiały i wypowiedzi zamieszczone na www.chords.pl są własnością ich autorów.