Zacznij systematycznie uczyć się grać na gitarze razem ze stroną Moja nauka - będziesz miał/miała do niej dostęp po zalogowaniu się w serwisie

Kryzysowa narzeczona (bas) - Lady Pank

Opracował -a: mklik,
Dodał -a: mklik,
Redaktor: SEBEK1304,
Pochodzi z: http://www.chords.pl/
Data publikacji: 2013-07-16 13:35
 
Moja nauka


Ups, problem :-/
Zaloguj się Mój śpiewnik


Kryzysowa narzeczona - tab na gitarę basową

Początek intro
|-----|-----|-----|
|-----|-----|-----|
|--3--|-----|--3--|
|-----|--5--|-----|

Intro
|-----------|-----------|-----------|-----------------|
|-----------|-----------|-----------|-----------------|
|-----------|---3-3-3-3-|-----------|---3-3-3--555-77-|
|-3-5-5-5-5-|-3---------|-3-5-5-5-5-|-3---------------|

Zwrotka/Solo gitary
|---------------|-----------|---------------|-----------|
|---------7-7---|-------7-7-|---------3-3---|-------5-5-|
|-----7-7-----7-|---7-7-----|-----3-3-----3-|---5-5-----|
|-5-5-----------|-5---------|-1-1-----------|-3---------|

Pre-ref
|-----------|-----------|-----------|-------------------|
|-----------|-----------|-----------|-------------------|
|-----------|---3-3-3-3-|-----------|---3-3-3--33-22-33-|
|-3-5-5-5-5-|-3---------|-3-5-5-5-5-|-3-----------------|

Refren
|-------------------------|    |-----|
|-------------------------| x2 |-----|
|-555...--111...--333...--|    |-5-7-|
|-------------------------|    |-----|

Ostatni refren
|-------------------------|    |-----|----------|----------|
|-------------------------| x4 |-----|----------|----------|
|-555...--111...--333...--|    |-5-7-|----------|-7873-xx--|
|-------------------------|    |-----|-00000000-|----------|

Dodaj komentarz ...i/lub link do filmiku video

Zaloguj się do serwisu
Wszelkie materiały i wypowiedzi zamieszczone na www.chords.pl są własnością ich autorów.