Zacznij systematycznie uczyć się grać na gitarze razem ze stroną Moja nauka - będziesz miał/miała do niej dostęp po zalogowaniu się w serwisie

Marchewkowe pole - Lady Pank

Opracował -a: michicybo,
Pochodzi z: http://www.chords.pl
Data publikacji: 2004-10-22 11:47
 
Moja nauka


Ups, problem :-/
Zaloguj się Mój śpiewnik


wstep:
                                                                        x4
--------------------------------------------------------------------------
--------------------------------------------------------------------------
----------0-----------------0--------0------------------------------------
-----4-------4-----4-----2--------0---------2-----------------------------
---5---5--------5-----3---------2---------3-------3/5----dalej od poczatku
--------------------------------------------------------------------------


Zwrotka
D2                       A                       F
-------------5-----------------------5-----------------------1-----------
----------5-----5-----------------5-----5-----------------1-----1--------
-------7-----------7-----------6-----------6-----------2-----------2-----
----7-----------------7-----7-----------------7-----3-----------------3--
-5-----------------------7-----------------------3-----------------------
-------------------------------------------------------------------------

G
------------3------------
---------3-----3---------
------4-----------4------
---5-----------------5---
5------------------------
-------------------------


Refren
  D                     A                     e
--5---5-------5--------5----5------5-------7----7-----7------7----7-------
--7---7-------7--------5----5------5-------8----8-----8------8----8-------
--7---7-------7--------6----6------6-------9----9-----9------9----9-------
--7---7-------7--------7----7------7-------9----9-----9------9----9-------
--5---5-------5--------7----7------7-------7----7-----7------7----7-------
-----------------------5----5------5--------------------------------------

 B
------------------------
-6---6---6---6----------
-7---7---7---7----------
-8---8---8---8----------
-8---8---8---8----------
-6---6---6---6----------


Wlasciwie to wszystko.
W wersji oryginalnej pod koniec grana byla solowka na flecie.
Dla zainteresowanych moge podac jej transkrypcje na gitare :
                                                        i tak w kolko
--------------------------------------------------------
---13-----12--10--8---12--10----------------------------
--------------------------------------11-----9---7---9--
--------------------------------------------------------
--------------------------------------------------------
--------------------------------------------------------

W wersji koncertowej graja w srodku solowke, gdzie Janek bawi się slidem,
natomiast bas i gitara graja :

----------------------------------------------
----------------------------------------------
----------------------------------------------
----------------------------------------------
--5---5-------------5---5------5-3------2--3--
----------5---5-------------------------------


Zwrotka:

D2  A
F   G
D2  A
F   G
D2  A
F   G
D2  A
F   G


Refren:

D  A  e    B   2x
Dodał: jakzagrac, 2013-04-06 00:47
Opracowania video z komentarzy

Dodaj komentarz ...i/lub link do filmiku video

Zaloguj się do serwisu
Ostatnie komentarze
1.
petlica
2015-09-14 21:46
Co do wstępu spróbowałbym jeszcze inaczej |-------------------------------------------------|-------------------------------------------------| |-------------------------------------------------|-------------------------------------------------| |-0-----------0-----------------0--------0--------|-0-----------0-----------------0--------0-----0--| |-------0--4-----4-----------4--------4--------4--|-------0--4-----4-----------4--------4-----3-----| |---/5--------------5--0--3--------2--------3-----|---/5--------------5--0--3--------2--------------| |-------------------------------------------------|-------------------------------------------------| pozdr
2.
tomkez
2015-09-10 18:06
-------------------------------------------------------------------- -------------------------------------------------------------------- -------0----------0-----0----------------0------------0------0------ ---4-----4------2-----4------2------4-------4-------2------4------2- -----5-----5--3-----2------3----3/5---5--------5--3------2------3--- /5------------------------------------------------------------------
3.
Niuncio95
2015-09-07 20:35
E------------------------------------------- B------------------------------------------- G-----0--------0-------0------0-------------X4 D---4--------2-------0------2--------------- A-5--------3-------2------3----------------- E------------------------------------------- ; To zdecydowanie lepiej brzmi niz te wasze wypociny ;) Łapcie, bo przynajmniej wchodzi pod łapkę ładnie:) Nie wzorujcie się na Tych Akordach w Refrenie tylko grajcie z pały:) Dsus2 A e Bb A
4.
graczo
2012-05-20 11:35
akordy może i są dobrze ale taby ;/
5.
ddaammiiaann11
2012-03-14 06:28
wstep zle
6.
marbra10
2011-04-03 12:29
wstep leci tak ------------------------------------------------------------ ------------------------------------------------------------ -0-------0---------------0--------0------0------------------ -------4---4----------2--------0---------------------------- ---4-5-------5--0---3-------2---------3--------------------- ------------------------------------------------------------
7.
tomkez
2007-08-19 00:20
http://free4web.pl/3/2,35873,104604,3912607,1,Thread.html;jsessionid=EC648A4DFBA67860DCECC2CD671EC29F na samym dole strony jest mój tab to może z tym pokombinujecie
8.
jajko16
2007-06-02 13:04
Dokladnie wstep sie nie zgadza!
9.
jedynak
2006-12-13 20:41
kurcze :( wydaje mi sie ze wstep troche inaczej idzie
10.
zenwro
2006-01-26 21:29
O akordzie D2 było już w komentarzach wielokrotnie.. Gdzie? Hmmm Spróbujmy skorzystać z wyszukiwarki na tej stronie "Powered by Google" - rzeczywiście coś wyszukuje, ale podpowiadany link jest bzdurny. Wpiszmy tam najczęściej ostatnio pojawiający sie komentarz na tej stronie, czyli od "rodzina123". Wyszukane zostanie mnóstwo komentarzy, ale linki do kitu. Panie Tomku P. Da się to poprawić???
Wszelkie materiały i wypowiedzi zamieszczone na www.chords.pl są własnością ich autorów.