Zacznij systematycznie uczyć się grać na gitarze razem ze stroną Moja nauka - będziesz miał/miała do niej dostęp po zalogowaniu się w serwisie

To jest tylko rock and roll - Lady Pank

Opracowali: 120+120, Seba,
Pochodzi z: http://gitara.org/
Data publikacji: 2004-09-25 23:46
 
Moja nauka


Ups, problem :-/
Zaloguj się Mój śpiewnik
intro:
                                                   4 razy
------------------------------------------------------------------
-----------------6-5----------------------------------------------
-----5--7--7--7------7-5------------------------------------------
---7---------------------7-5-7------------------------------------
------------------------------------------------------------------
------------------------------------------------------------------


d             F
Co ty masz w sobie
C2          G
Co w sobie masz...

Zwr: 

E1|--------0-----------------------------0--------3-------
H|-------6---6-----------------------------3------3-------
G|-----5-------5-----------0---0-------0-----0----0-------
D|--0------------0-------3---3-------2---------2--0--2-3--
A|---------------------3----------3---------------2-------
E6|-----------------1-----------------------------3-------

E1|--------0-----------------------------0--------3---------------
H|-------6---6-----------------------------3------3---------------
G|-----5-------5-----------0---0-------0-----0----0---------------
D|--0------------0-------3---3-------2---------2--0--2-3-2h3p2----
A|---------------------3----------3---------------2------------3--
E6|-----------------1-----------------------------3---------------

Refren:

B    C
B    C
B    C
B    C
d


Zwrotka, refren...

Tab do zwrotki dodany przez użytkownika Seba
Dodał: 120+120, 2019-07-03 19:32
Opracowania video z komentarzy

Dodaj komentarz ...i/lub link do filmiku video

Zaloguj się do serwisu
Ostatnie komentarze
1.
praz
2014-05-21 22:54
Jasio jak zwykle w formie :)
2.
120+120
2014-05-07 00:45
https://www.youtube.com/watch?v=jhUhtcZwfYg
Wszelkie materiały i wypowiedzi zamieszczone na www.chords.pl są własnością ich autorów.