Zacznij systematycznie uczyć się grać na gitarze razem ze stroną Moja nauka - będziesz miał/miała do niej dostęp po zalogowaniu się w serwisie

Zostawcie Titanica - Lady Pank

Opracował -a: praz,
Pochodzi z: http://www.chords.pl
Data publikacji: 2004-08-31 21:28
 
Moja nauka


Ups, problem :-/
Zaloguj się Mój śpiewnik
Wstęp:

E||------------0--2--4--|--5----4--2----0----2--|----0----2----4------|
B||---------------------|-----------------------|---------------------|
G||---------------------|-----------------------|---------------------|
D||---------------------|-----------------------|---------------------|
A||---------------------|-----------------------|---------------------|
E||---------------------|-----------------------|---------------------|



--5----4--2----0----2--|----0----2----0--2--4--|--5----4--2----0----2--|
-----------------------|-----------------------|-----------------------|
-----------------------|-----------------------|-----------------------|
-----------------------|-----------------------|-----------------------|
-----------------------|-----------------------|-----------------------|
-----------------------|-----------------------|-----------------------|



----0----2----4------|--2----0--2----4----2--|----0----2----0--2--4--|
---------------------|-----------------------|-----------------------|
---------------------|-----------------------|-----------------------|
---------------------|-----------------------|-----------------------|
---------------------|-----------------------|-----------------------|
---------------------|-----------------------|-----------------------|



--5----4--2----0----2--|----0----2----4------|--5----4--2----0----2--|
-----------------------|---------------------|-----------------------|
-----------------------|---------------------|-----------------------|
-----------------------|---------------------|-----------------------|
-----------------------|---------------------|-----------------------|
-----------------------|---------------------|-----------------------|



----0----2----0--2--4--|--5----4--2----0----2--|----0----2----4------|
-----------------------|-----------------------|---------------------|
-----------------------|-----------------------|---------------------|
-----------------------|-----------------------|---------------------|
-----------------------|-----------------------|---------------------|
-----------------------|-----------------------|---------------------|



--2----0--2----4----2--|----0----2----------||
-----------------------|--------------------||
-----------------------|--------------------||
-----------------------|--------------------||
-----------------------|--------------------||
-----------------------|--------------------||


Zwrotka: E cis A H //2x

Piękna aktorka .... cis A H
Kelner się potknął... cis A H

2 Zwrotka: E cis A H //2x

Młody milioner... cis A H //2x


Nie przerywajcie... H


Zostawcie Titanica .... E H cis A E H cis A
Tam ciągle... E H cis A E H cis A


Niezatapialnie ... cis A cis A
Nieosiągalny...  cis A H E
Dodał: Janek, 2017-12-31 13:04
Opracowania video z komentarzy

Dodaj komentarz ...i/lub link do filmiku video

Zaloguj się do serwisu
Ostatnie komentarze
1.
radosz1995
2014-10-09 08:04
Witam mógłby ktoś podać jak w tej wersji jest grany wstęp :)
2.
pirat21wieka
2011-06-09 18:24
Gwoli ścisłości: na płycie, z której pochodzi "Titanic", zagrało dwóch klawiszowców, a w samej piosence też klawisze słychać.
3.
sztywny96
2011-06-09 14:10
Zajc2212 lady pank nie używa keyboardu w zespole i chyba cie coś pogieło z tą solówką
4.
PrzekornaDusza
2011-05-13 18:05
Co keybord? Jaki keybord? Żadnej solówki na keybordzie nie ma. Są na gitarze i to dwie, w środku i na końcu kawałka.
5.
rybazmarsa88
2011-05-03 10:32
ja chyba snię!! nie ma solówki do zostawcie titanica??? http://www.youtube.com/watch?v=89mpi0c_YoY 2:15s to co to ma byc Twoim zdaniem??:|
6.
Zajc2212
2011-05-02 16:07
W tej piosence solówkę ma keyboard. Gitara jako tako solówy nie ma, natomiast wstawki owszem. Jak chcesz to popytaj się o poszczególne dźwięki kogoś kto gra na keyboardzie :)
7.
smolarek30
2008-11-16 10:43
a mógłbym prosić solóweczkę....
8.
Seeboo
2008-10-29 19:33
Wielkie dzięki
9.
Dejw
2008-10-28 22:13
W tonacji G-dur będzie bez barów :)
10.
pirat21wieka
2008-10-28 22:07
to będzie tak: zwrotka C a F G "piękna aktorka" a F G refren C G a F "niezatapialnie" a F a F a F co nie znaczy, że nie powinieneś zajrzeć tutaj: http://www.chords.pl/kurs/transponowanie/#h miłego brzdąkania
Wszelkie materiały i wypowiedzi zamieszczone na www.chords.pl są własnością ich autorów.